Verdena

Verdena - Linfinita Gioia Di Herny Bahus guitar tab

Artist: Verdena

Song: L’infinita gioia di Herny Bahus

Album: Verdena

Tabbed by kurt826

Tuning: Eb Ab Db Gb Bb eb

Intro (clean):

e|-0--0-00-|-0-0--0--|-0-0000--0--|--0--0-0-0-0--0-|--0---0-0-0-0--0-|

B|-0--0-00-|-0-0--0--|-0-0000--0--|--0--0-0-0-0--0-|--0---0-0-0-0--0-|

G|-2--2-22-|-2-2--5--|-5-5444--4--|-10-10101010-10-|-10--10101010-10-|

D|-2--2-22-|-2-2--5--|-5-5555--5--|-10-10101010-10-|--9---9-91010-10-|

A|-0--0-00-|-0-0--3--|-3-3333--3--|--8--8-8-8-8--8-|--8---8-8-8-8--8-|

E|---------|---------|------------|----------------|-----------------|

e|-0--0-00-|-0-0--0--|-0-0000--0--|--0--0-0-0-0--0-|--0---0-0-0-0--0-|

B|-0--0-00-|-0-0--0--|-0-0000--0--|--0--0-0-0-0--0-|--0---0-0-0-0--0-|

G|-2--2-22-|-2-2--5--|-5-5444--4--|-10-10101010-10-|-10--10101010-10-|

D|-2--2-22-|-2-2--5--|-5-5555--5--|-10-10101010-10-|--9---9-91010-10-|

A|-0--0-00-|-0-0--3--|-3-3333--3--|--8--8-8-8-8--8-|--8---8-8-8-8--8-|

E|---------|---------|------------|----------------|-----------------|

Enters distorsion with slides on “E”

Verse:

e|-0--0-00-|-0-0--0--|-0-0000--0--|--0--0-0-0-0--0-|--0---0-0-0-0--0-|

B|-0--0-00-|-0-0--0--|-0-0000--0--|--0--0-0-0-0--0-|--0---0-0-0-0--0-|

G|-2--2-22-|-2-2--5--|-5-5444--4--|-10-10101010-10-|-10--10101010-10-|

D|-2--2-22-|-2-2--5--|-5-5555--5--|-10-10101010-10-|--9---9-91010-10-|

A|-0--0-00-|-0-0--3--|-3-3333--3--|--8--8-8-8-8--8-|--8---8-8-8-8--8-|

E|---------|---------|------------|----------------|-----------------|

1.io non ti avrò mai ma sento che c'è mi sfiori

2. qualcosa non va qualcosa in me e sudi

1. mi sento lontano come nOn mai nei miei

2. mi vedoall'inverso come nOn mai nei miei

1.neri e blu non mi sembra di trovarti mai ora sento

2.neri e blu non mi sembra di trovarti mai ora bevo in

1.che io dovrei in lei vomitare

2.lei e mi sento più speciale

Between first and second verse:

e|---------|---------|------------|--------------|-----------------|

B|---------|---------|------------|--------------|-----------------|

G|-2--2-22-|-2-2--5--|-5-5444--4--|-10-10-12-12--|-14--14141414-14-|

D|-2--2-22-|-2-2--5--|-5-5555--5--|-10-10-12-12--|-14--14141414-14-|

A|-0--0-00-|-0-0--3--|-3-3333--3--|--8--8-10-10--|-12--12121212-12-|

E|---------|---------|------------|--------------|-----------------|

(2 times)

Chorus:

e|--------------------------------------------------------------------|

B|5-5-5-5-5-5-6-6-5-5-5-5-5-5-6-6-5-5-5-5-5-5-6-6-5-5-5-5-5-5-6-6-5-5-|

G|5-5-5-5-5-5-5-5-5-5-5-5-5-5-5-5-5-5-5-5-5-5-5-5-5-5-5-5-5-5-5-5-5-5-|

D|--------------------------------------------------------------------|

A|--------------------------------------------------------------------|

E|--------------------------------------------------------------------|

E dentro me E dentro

Me E dentro me ah ah Io come lei

(2 times)

Post chorus:

e|-----|------------|---------|----------|---------|

B|-0---|-0----------|---------|----------|---------|

G|-2---|-2----------|-5-5-5-5-|-5-4^---4-|-5-5-5-5-|

D|-2---|-2-54445444-|-3-3-3-3-|-3------3-|-3-3-3-3-|

A|-0---|-0-32223222-|---------|----------|---------|

E|-----|------------|---------|----------|---------|

2 times

Bridge (clean):

e|-0--0-00-|-0-0--0--|-0-0000--0--|--0--0-0-0-0--0-|--0--------------|

B|-0--0-00-|-0-0--0--|-0-0000--0--|--0--0-0-0-0--0-|--0--------------|

G|-2--2-22-|-2-2--5--|-5-5444--4--|-10-10101010-10-|-10--------------|

D|-2--2-22-|-2-2--5--|-5-5555--5--|-10-10101010-10-|--9--------------|

A|-0--0-00-|-0-0--3--|-3-3333--3--|--8--8-8-8-8--8-|--8--------------|

E|---------|---------|------------|----------------|-----------------|

Qualcosa non va qualcosa in me e sudi

Solo:

e|--------------|---------------------|------------------------|

B|--------------|---------------------|------------------------|

G|--------------|---------------------|------------------------|

D|-9/10----129-|-97-7-7-7-5-7-7-7/9-|-9/10--12-14-109--109-|

A|--------------|---------------------|------------------------|

E|--------------|---------------------|------------------------|

e|--------------------|-----------------------|----------------|

B|--------------------|-----------------------|-13-12----------|

G|--------------------|-----1214---12---------|-------1412/14-|

D|-97-7-7-7-97-7-7-|-1214---------14-12-14-|----------------|

A|--------------------|-----------------------|----------------|

E|--------------------|-----------------------|----------------|

e|-------------------|-----------------------------|-----------|

B|-------------------|-----------------------------|-13-12-15--|

G|-1412--------------|-12-14-12--------------------|-----------|

D|-----14-14-14^--14-|----------14-14-12--14-12-14-|-----------|

A|-------------------|-----------------------------|-----------|

E|-------------------|-----------------------------|-----------|

e|------------------|---------------------|------------------------|

B|------------------|---------------------|------------------------|

G|-4-4-4-4-4-4-4-5--|-5-5-5-5-5-5-4-4-4-4-|-4-4-4-7--7-7-7-7-7-7-7-|

D|------------------|---------------------|------------------------|

A|------------------|---------------------|------------------------|

E|------------------|---------------------|------------------------|

e|-------------------------------------|----------------------------------|

B|-------------------------------------|----------------------------------|

G|-9-9-9-9-9-9-9-10-101010101010101010-|-12121212121212-14-14141414141414-|

D|-------------------------------------|----------------------------------|

A|-------------------------------------|----------------------------------|

E|-------------------------------------|----------------------------------|

Bridge 2:

e|-----------|

B|-----------|

G|-----------|

D|-54445444--|

A|-32223222--|

E|-----------|

end...

Get this song at:  amazon.com sheetmusicplus.com

Share your thoughts

0 Comments found