Verdena

Verdena - Linfinita Gioia Di Henry Bahus guitar tab

L'INFINITA GIOIA DI HENRY BAHUS

Verdena

Album: Verdena, 1999

Tabbed by Denial Guitar (DenialGtr@hotmail.com)

Tune 1/2 step down (Eb Ab Db Gb Bb eb)

Main riff

|-----0----0---|-------0---------------|--------0------0----|-----0--------------|

|-----0----0---|-------0---------------|--0--0--0---0--0--0-|-0-0-0---0--0--0--0-|

|--------------|-----------------------|--x--x--x---x--x--x-|-x-x-x---x--x--x--x-|

|-7-7----7---7-|-10-10---10s9-9-10s9-9-|-10-10-10--10-10-10-|-9-9-9--10-10-10-10-|

|-7-7----7---7-|-10-10---10s9-9-10s9-9-|--8--8--8---8--8--8-|-8-8-8---8--8--8--8-|

|-5-5----5---5-|--8--8----8s7-7--8s7-7-|--------------------|--------------------|

intro: main riff x2

Verse 1 (main riff x4)

Io non ti avrò mai ma sento che c'è, mi sfiori

mi sento lontano come non mai

nei miei neri e blu non mi sembra di trovarti mai

ora sento che io dovrei in lei vomitare

Bridge 1

|---------------|-----------------------|-----------------------|------------------------|

|---------------|-----------------------|-----------------------|------------------------|

|---------------|-----------------------|10-10-10-10-12-12-12-12|14-14-14-14-14-14-------|

|7-7-7-7-7-7-7-7|10-10-10-10-10-10-10-10|10-10-10-10-12-12-12-12|14-14-14-14-14-14-------| (x2)

|7-7-7-7-7-7-7-7|10-10-10-10-10-10-10-10|-8--8--8--8-10-10-10-10|12-12-12-12-12-12-------|

|5-5-5-5-5-5-5-5|-8--8--8--8--8--8--8--8|-----------------------|------------------0s12s0|

Verse 2 (main riff x4)

Qualcosa non va qualcosa in me, e sudi

mi vedo all'inverso come non mai

nei miei neri e blu non mi sembra di trovarti mai

ora bevo in lei e mi sento più speciale

Chorus

|-----------------|-----------------|-----------------|

|-5-5-5-5-5-6-6-5-|-5-5-5-5-5-6-6-5-|-5-5-5-5-5-6-6-5-|

|-5-5-5-5-5-5-5-5-|-5-5-5-5-5-5-5-5-|-5-5-5-5-5-5-5-5-|

|-5-5-5-5-5-5-5-5-|-5-5-5-5-5-5-5-5-|-5-5-5-5-5-5-5-5-| (x4)

|-----------------|-----------------|-----------------|

|-----------------|-----------------|-----------------|

e dentro me

e dentro me aaah io come lei

e dentro me

e dentro me aaah io come lei

Bridge 2

|----0-----------|------------------------|-------0------0----|-----------------------|

|----0-----------|------------------------|-0--0--0---0--0--0-|-----------------------|

|----------------|------------------------|-x--x--x---x--x--x-|-----------------------|

|7-7---7-7-------|7-7--------10s9-9-10s9-9|10-10-10--10-10-10-|9b--------10s9-9-10s9-9| (x2)

|7-7---7-7-------|7-7--------10s9-9-10s9-9|-8--8--8---8--8--8-|----------10s9-9-10s9-9|

|5-5---5-5-0s12s0|5-5-0s12s0--8s7-7--8s7-7|-------------------|---0s12s0--8s7-7--8s7-7|

then...

|-----0----0---|-------0---------------|--------0------0----|--------------------|

|-----0----0---|-------0---------------|--0--0--0---0--0--0-|-0------------------|

|--------------|-----------------------|--x--x--x---x--x--x-|-x------------------|

|-7-7----7---7-|-10-10---10s9-9-10s9-9-|-10-10-10--10-10-10-|-9------------------|

|-7-7----7---7-|-10-10---10s9-9-10s9-9-|--8--8--8---8--8--8-|-8------------------|

|-5-5----5---5-|--8--8----8s7-7--8s7-7-|--------------------|--------------------|

qualcosa non va qualcosa in me e sudi...

Solo

|-------|--------|------------------|---------|---------|---------|----------------|

|-------|--------|------------------|---------|---------|---------|----------------|

|-4s5---|---5-7s4|4-4s2-2-2p0-0-2-2~|---2-2-4s|5-7-7s9b~|-5-4-5-4-|2-2-0-0-2-2-4-4-|

|-------|--------|------------------|---------|---------|---------|----------------|

|-------|--------|------------------|---------|---------|---------|----------------|

|-------|--------|------------------|---------|---------|---------|----------------|

|-------|-----3h5-|3h5p3-------5-3|--3----------|---------3-5|3--------8|7-10-8-7b~|

|-------|-3h5-----|------5-3h5----|5---5-5b-3-5-|5h5-5br-----|--5-3-5---|----------|

|2~--2h0|---------|---------------|-------------|------------|----------|----------|

|-------|---------|---------------|-------------|------------|----------|----------|

|-------|---------|---------------|-------------|------------|----------|----------|

|-------|---------|---------------|-------------|------------|----------|----------|

|---------------|---------------|---------------|---------------|---------------|

|---------------|---------------|---------------|---------------|---------------|

|4-4-4-4-4-4-4-4|5-5-5-5-5-5-5-5|4-4-4-4-4-4-4-4|7-7-7-7-7-7-7-7|9-9-9-9-9-9-9-9|

|---------------|---------------|---------------|---------------|---------------|

|---------------|---------------|---------------|---------------|---------------|

|---------------|---------------|---------------|---------------|---------------|

|-----------------------|-----------------------|--------------------------|

|-----------------------|-----------------------|--------------------------|

|10-10-10-10-10-10-10-10|12-12-12-12-12-12-12-12|14-14-14-14---------------|

|-----------------------|-----------------------|------------10s9-9-10s9-9-|

|-----------------------|-----------------------|------------10s9-9-10s9-9-|

|-----------------------|-----------------------|-------------8s7-7--8s7-7-|

[Repeat verse 1, chorus and bridge 2]

end on:

|--------------|

|--------------|

|--------------|

|--7-------s2--|

|--7-------s2--|

|--5-------s0--|

Get this song at:  amazon.com sheetmusicplus.com

Share your thoughts

0 Comments found