Verdena

Verdena - Infinita Gioia Di Hb bass tab

Verdena

INFINITA GIOIA DI H.B.

Strofe+Main riff

Gb|---------------------------------------

Db|---------------------------------------

Ab|---------3-3-3-3-3---------------------

Eb|5-5-5-5------------0-1-1-1-1-1-1-1-3-3-

Ultima volta

Gb|-----------------------------------

Db|-----------------------------------

Ab|----------3-3-3-3-/8-8-8-8-8-10-10-

Eb|5-5-5-5----------------------------

Ritornello

Gb|-----------------------------------------------------------

Db|-----------------------------------------------------------

Ab|-3-3-3-3-3-3-3-3-5-5-x2------------------------------------

Eb|-------------------------5-5-5-5-5-3-3-1-1-1-1-1-1-1-3-3-3-

Post-rit

Gb|--------------------------------------------------------------------

Db|--------------------------------------------------------------------

Ab|0-0-0-0-0-0-0----0---3-2-2-2-3-2-2-2/8-8-8-8-8-8-8---3-2-2-2-3-2-2-2

Eb|--------------------------------------------------------------------

Parte finale dell´┐Żassolo

Gb|----------------------------------------------------------------

Db|----------------------------------------------------------------

Ab|8-8-8-8-8-8-8-8-8-8-8-8-8-8-8-8-8-8-8-8-8-8-8-8-8-8---3-2-3-2--/

Eb|----------------------------------------------------------------

/= slide

^= bend

x= armonica (queste note sfiorando solo le corde)

per suggerimenti o rimproveri scrivi a: gallottaluigi@tin.it

Get this song at:  amazon.com sheetmusicplus.com

Share your thoughts

0 Comments found