Verdena

Verdena - Il Suicidio Del Samurai guitar tab

Artist: Verdena

Song: Il suicidio del samurai

Album: Il suicidio del samurai

Tabbed by kurt826

Intro

|------1---------1---|------1---------1---|

|--------0---------0-|--------0---------0-|

|----2---------2-----|----2---------2-----|

|--------------------|--------------------|

|-3---------2--------|-3---------2--------|

|--------------------|--------------------|

Verse

|--------------------|-------------------|-------------------|

|------0---------0---|------3--------0---|-----0--------0----|

|--------2-----2---2-|--------3--------2-|-------1---------1-| x2

|----2-------3-------|---3---------3-----|---2--------2------|

|--0-----------------|-1-----------------|-------------------|

|--------------------|-----------1-------|-0--------0--------|

1.Questa è una goccia che evapora da sè

2.Certo è che la fine la so distinguere

1.Questa gioia che ci illude avrà  cura di noi

2.Più di ogni tua rinuncia che sa di polvere

Chorus:

|-----------------|-----------------|

|-----------------|-6-6-6-6-6-6-6-6-|

|-----------------|-7-7-7-7-7-7-7-7-|

|-3-3-3-3-3-3-2-2-|-7-7-7-7-7-7-7-7-|

|-3-3-3-3-3-3-2-2-|-5-5-5-5-5-5-5-5-|

|-1-1-1-1-1-1-0-0-|-----------------|

Affondo in nora oh

|-----------------|-----------------|

|-----------------|-6-6-6-6-6-6-6-6-|

|-----------------|-7-7-7-7-7-7-7-7-|

|-3-3-3-3-3-3-2-2-|-7-7-7-7-7-7-7-7-|

|-3-3-3-3-3-3-2-2-|-5-5-5-5-5-5-5-5-|

|-1-1-1-1-1-1-0-0-|-----------------|

Affondo in nora oh

Post chorus:

|------1---------1---|-------------------|------------------|--------------|

|--------0---------0-|-----0---------0---|------------------|--------------|

|----2---------2-----|-------2-----2---2-|------7b-------2b-|-----0--1--3--|

|--------------------|---2-------3-------|-8-8------3-3-----|-2------------|

|-3---------2--------|-0-----------------|-8-8------3-3-----|-2------------|

|--------------------|-------------------|-6-6------1-1-----|-0------------|

Affondo in nora

Verse 2 (same at the first)

Chorus

Outro

|-------------------|------------------|--------------|

|-----0---------0---|------------------|--------------|

|-------2-----2---2-|------7b-------2b-|-----0--1--3--|

|---2-------3-------|-8-8------3-3-----|-2------------|

|-0-----------------|-8-8------3-3-----|-2------------|

|-------------------|-6-6------1-1-----|-0------------|

|-------------------|--------------|

|-----0---------0---|--------------|

|-------2-----2---2-|--------------|

|---2-------3-------|-8------------|

|-0-----------------|-8------------|

|-------------------|-6------------|

end…

Get this song at:  amazon.com sheetmusicplus.com

Share your thoughts

0 Comments found