Verdena

Verdena - Glamodrama guitar tab

Title: Glamodrama

Artist: Verdena

Album: Il suicidio del samurai

(clean\\\\overdrive)

Eb|------2--------0------------------------------------------------------------------|

Bb|-----------------------------4-------3----1^0-----0-----1------------3------------|

Gb|----------0---------0-------0---0-----------------0-----0------------0------------|x2

Db|----2------2---------2-----------2--------------0----0------0-----0------0----0---|

Ab|--------------------------3----3--(3)---3-----------------------------------------|

Eb|--0-----0---(0)---0---(0)----------------------3----3-3----3-3-(3)-3----3-3-(3)-3-|

(clean\\\\overdrive)

Eb|------2--------0------------------------------------------------------------------|

Bb|-----------------------------4-------3----1^0-----0-----1------------3------------|

Gb|----------0---------0-------0---0-----------------0-----0------------0------------|x3

Db|----2------2---------2-----------2--------------0----0------0-----0------0----0---|

Ab|--------------------------3----3--(3)---3-----------------------------------------|

Eb|--0-----0---(0)---0---(0)----------------------3----3-3----3-3-(3)-3----3-3-(3)-3-|

A volte lei cambia pelle

Lo confessa a me Continuamente

Lei esplora l'ordine diffuso da me

(clean\\\\overdrive)\\

Eb|------2--------0------------------------------------------------------------------|

Bb|-----------------------------4-------3----1^0------0-(0)---1-(1)---3-3---0-1-3----|

Gb|----------0---------0-------0---0------------------0-(0)---0-(0)---0-0---0-0-0----|x1

Db|----2------2---------2-----------2-----------------0-(0)---0-(0)---0-0---0-0-0----|

Ab|--------------------------3----3--(3)---3-------2---------------------------------|

Eb|--0-----0---(0)---0---(0)----------------------3----------------------------------|

Ed ora \\'8f chiaro che la carie pi\\'9d viva sei solo tu

(LEAD)

Eb|--------------------------------------------------------------------------------------|

Bb|-----------------------------------------------4-------3-----3-3-3-3-3-3-3-3-3-3-3-3--|

Gb|------8-----------7----------7----------7-----5---5---4---4--4-4-4-4-4-4-4-4-4-4-4-4--|x2

Db|-------------------------------------------------------------5-5-5-5-5-5-5-5-5-5-5-5--|

Ab|-------------------------------------------------------------5-5-5-5-5-5-5-5-5-5-5-5--|

Eb|--8-8----8-8-7-7-7---7-7-6-6---6-6-7-7-7---7-4---4---3---3---3-3-3-3-3-3-3-3-3-3-3-3--|

Demone Demone come cadi bene un bolide!

Diamine Demone l'ansia divora

Eb|------2--------0------------------------------------------------------------------|

Bb|-----------------------------4-------3----1^0-----0-----1------------3------------|

Gb|----------0---------0-------0---0-----------------0-----0------------0------------|x1

Db|----2------2---------2-----------2--------------0----0------0-----0------0----0---|

Ab|--------------------------3----3--(3)---3-----------------------------------------|

Eb|--0-----0---(0)---0---(0)----------------------3----3-3----3-3-(3)-3----3-3-(3)-3-|

A volte compaiono streghe

(clean\\\\overdrive)

Eb|------2--------0------------------------------------------------------------------|

Bb|-----------------------------4-------3----1^0------0-(0)---1-(1)---3-3---0-1-3----|

Gb|----------0---------0-------0---0------------------0-(0)---0-(0)---0-0---0-0-0----|x1

Db|----2------2---------2-----------2-----------------0-(0)---0-(0)---0-0---0-0-0----|

Ab|--------------------------3----3--(3)---3-------2---------------------------------|

Eb|--0-----0---(0)---0---(0)----------------------3----------------------------------|

La psicoanalisi non funziona pi\\'9d come io vorrei

(LEAD)

Eb|--------------------------------------------------------------------------------------|

Bb|-----------------------------------------------4-------3-----3-3-3-3-3-3-3-3-3-3-3-3--|

Gb|------8-----------7----------7----------7-----5---5---4---4--4-4-4-4-4-4-4-4-4-4-4-4--|x2

Db|-------------------------------------------------------------5-5-5-5-5-5-5-5-5-5-5-5--|

Ab|-------------------------------------------------------------5-5-5-5-5-5-5-5-5-5-5-5--|

Eb|--8-8----8-8-7-7-7---7-7-6-6---6-6-7-7-7---7-4---4---3---3---3-3-3-3-3-3-3-3-3-3-3-3--|

Demone Demone come cadi bene un bolide!

Diamine Demone l'ansia divora....uah!

SOLO:\\

Eb|----------------------------------------------------------------------------------------|

Bb|----------------------------------------------------------------------------------------|

Gb|--9-9\\\\11---11-11-12-9--9-9-3-3\\\\8--8-8-10-7--5^4------4--------------------------------|

Db|--9-9------------------9-9-5-5-------------------5-5-5--7\\\\9-9-9-9\\\\7-5--5-----7-7-9-7--|

Ab|--7-7------------------7-7-5-5-------------------5-5-5----------------7---7\\\\9-9-----9--|

Eb|-------------------------------------------------3-3-3----------------------------------|

Eb|-----------------------------------------------------------------------------------------|

Bb|------------------------------------------8----------------------------------------------|

Gb|--9-9\\\\11---11-11-12-14--9-9-3-3\\\\8--8-8-10---5^4-------4--------------------------------|x2

Db|--9-9-------------------9-9-5-5-------------------5-5-5--7\\\\9-9-9-9\\\\7-5--5-----7-7-9-7--|

Ab|--7-7-------------------7-7-5-5-------------------5-5-5----------------7---7\\\\9-9-----9--|

Eb|--------------------------------------------------3-3-3----------------------------------|

La serpe.. non cambia pelle

Eb|----------------------------------------------------------------------------------|

Bb|---------------------------------------------------0-(0)---1-(1)---3-3---0-1-3----|

Gb|---------------------------------------------------0-(0)---0-(0)---0-0---0-0-0----|x1

Db|---------------------------------------------------0-(0)---0-(0)---0-0---0-0-0----|

Ab|------------------------------------------------2------------------2--------------|

Eb|-----------------------------------------------3-------------------3--------------|

E non è vero che la carie più viva resti solo tu.

(clean\\\\overdrive)

Eb|---------------------------------------------------------------------|

Bb|--------3-------3-------3-------3--------3-------3-------3-------3---|

Gb|----0-------0-------0-------0--------0-------0-------0-------0-------|x4

Db|---------------------------------------------------------------------|

Ab|--1---1---1---1---1---1---1---1----2---2---2---2---2---2---2---2-----|

Eb|---------------------------------------------------------------------|

(clean\\\\overdrive) (tutta questa parte finale nel complesso è in 5\\4)

Eb|-------------------------------------------------------------------|

Bb|--4----4-------4-------4-------4\\\\3----3-------3-------3-------3---|

Gb|---0--------0-------0-------0-----0-------0-------0-------0--------|

Db|-------------------------------------------------------------------|

Ab|-----3---3---3---3---3---3---3------1---1---1---1---1---1---1------|

Eb|-------------------------------------------------------------------|

|\\

Eb|--------------------------------------------------------------------|

Bb|--------3-------3-------3-------3--------3-------3-------3-------3--|

Gb|----0-------0-------0-------0--------0-------0-------0-------0------|

Db|--------------------------------------------------------------------| |fino alla fine

Ab|--2---2---2---2---2---2---2---2----1---1---1---1---1---1---1---1----|

Eb|--------------------------------------------------------------------|

|\\

Eb|----------------------------------|

Bb|--------3-------3-------3-------3-|

Gb|----0-------0-------0-------0-----|

Db|----------------------------------|

Ab|--1---1---1---1---1---1---1---1---|

Eb|----------------------------------|Added by tabs-database.com and our distinguished partners

Get this song at:  amazon.com sheetmusicplus.com

Share your thoughts

0 Comments found