Verdena

Verdena - Fiato Adolescenziale guitar tab

FIATO ADOLESCENZIALE

Verdena

From: Verdena demotape, 1997

Tabbed by Denial Guitar (DenialGtr@hotmail.com)

Tune 1/2 step down (Eb Ab Db Gb Bb eb)

Intro

|----------|-----------------|

|----------|-----------------|

|-7--7-7-7-|-----------------|

|-7--7-7-7-|-7-7-8-8-8-8-7-7-| (x4)

|-5--5-5-5-|-7-7-8-8-8-8-7-7-|

|----------|-5-5-6-6-6-6-5-5-|

Verse 1 (intro x2)

Scimmie non mi

frega vivere

succhiandomi io non

devo ridere

Carne

bamboline stitiche

cullandomi io non

devo esigere

Pre-chorus

|-----------------|-----------------|

|-----------------|-----------------|

|-----------------|-----------------|

|-----------------|-----------------| (x4)

|-5-5-5-5-5-5-5-5-|-7-7-8-8-8-8-7-7-|

|-3-3-3-3-3-3-3-3-|-5-5-6-6-6-6-5-5-|

x x x x x x x x x x x x x x x x

Guardami come

sei, io non so piĆ¹ perdere

guardami come

puoi, io amavo le mie...

Verse 2 (the same as intro)

Scimmie, grandi

mani su di me

Mangimi, crollo e

penso solo a me

[Repeat pre-chorus]

Bridge

|-------------|-------------|-------------|-------------|

|-------------|-------------|-------------|-------------|

|-7--7--7--7--|-7--7--8--8--|-7--7--7--7--|-8--8--8--8--|

|-7--7--7--7--|-7--7--8--8--|-7--7--7--7--|-8--8--8--8--|

|-5--5--5--5--|-5--5--6--6--|-5--5--5--5--|-6--6--6--6--|

|-------------|-------------|-------------|-------------|

Chorus 1

|----------------|----------------|

|----------------|----------------|

|-7-7------------|----------------|

|-7-7--7-7-8-8-8-|-5--5-5-7-7-8-8-| (x4)

|-5-5--7-7-8-8-8-|-5--5-5-7-7-8-8-|

|------5-5-6-6-6-|-3--3-3-5-5-6-6-|

ehi! Fuori...

me! Fuori...

|-----------|---------------|

|-----------|---------------|

|-----------|---------------|

|-7-7--7-7--|-8s20-20-20-20-|

|-7-7--7-7--|-8s20-20-20-20-|

|-5-5--5-5--|-6s18-18-18-18-|

me!

Post-chorus (the same as intro)

Uh uhu uh lala (x4)

Verse 3

Scimmie non mi

frega vivere

succhiandomi io non

devo esigere

Carne

bamboline stitiche

cullandomi io non

devo ridere

[Repeat pre-chorus and bridge]

Chorus 2

|----------------|----------------|

|----------------|----------------|

|-7-7------------|----------------|

|-7-7--7-7-8-8-8-|-5--5-5-7-7-8-8-| (x8)

|-5-5--7-7-8-8-8-|-5--5-5-7-7-8-8-|

|------5-5-6-6-6-|-3--3-3-5-5-6-6-|

ehi! Fuori...

me! Fuori...

|-----------|---------------|

|-----------|---------------|

|-----------|---------------|

|-7-7--7-7--|-8s20-20-20-20-|

|-7-7--7-7--|-8s20-20-20-20-|

|-5-5--5-5--|-6s18-18-18-18-|

me!

[End with post-chorus]

Get this song at:  amazon.com sheetmusicplus.com

Share your thoughts

0 Comments found