Verdena

Verdena - Eyeliner guitar tab

EYELINER

Verdena

Album: Verdena, 1999

Tabbed by Denial Guitar (DenialGtr@hotmail.com)

Tune 1/2 step down (Eb Ab Db Gb Bb eb)

Intro

|------------|-------------|-------------|-------------|-------------|-------------------|

|------------|-------------|-------------|-------------|-------------|-------------------|

|------------|-------------|-------------|-------------|-------------|-------------------|

|----7-----7-|----7-----7--|-----5-----5-|----5-----5--|-----3-----3-|--3s2-----2-----2--|

|------------|-------------|-------------|-------------|-------------|-------------------|

|5-5---5-5---|5-5---5-5---5|3-3---3-3----|3-3---3-3---3|1-1---1-1----|1-----0-0---0-0---0|

|-----------|-----------------|-----------|-----------------|-----------|-------------------|

|-----------|-----------------|-----------|-----------------|-----------|-------------------|

|-----------|-----------------|-----------|-----------------|-----------|-------------------|

|----7-----7|-----9-9-10-10-9-|----5-----5|-----9-9-10-10-9-|----3-----3|--3s2-----2-----2--| (x2)

|-----------|-----------------|-----------|-----------------|-----------|-------------------|

|5-5---5-5--|5-5--7-7--8--8-7-|3-3---3-3--|3-3--7-7--8--8-7-|1-1---1-1--|1-----0-0---0-0---0|

|------------|-----------------|

|------------|-----------------|

|------------|-----------------|

|----7-----7-|----7-----7------|

|------------|-----------------|

|5-5---5-5---|5-5---5-5---5s3s5|

Verse 1

|------------|-------------|-------------|-------------|-------------|-------------------|

|------------|-------------|-------------|-------------|-------------|-------------------|

|------------|-------------|-------------|-------------|-------------|-------------------|

|----7-----7-|----7-----7--|-----5-----5-|----5-----5--|-----3-----3-|--3s2-----2-----2--|

|------------|-------------|-------------|-------------|-------------|-------------------|

|5-5---5-5---|5-5---5-5---5|3-3---3-3----|3-3---3-3---3|1-1---1-1----|1-----0-0---0-0---0|

Vedi blu e ti senti fragile, ora sgomma!

|------------|-----------------|

|------------|-----------------|

|------------|-----------------|

|----7-----7-|----7-----7------|

|------------|-----------------|

|5-5---5-5---|5-5---5-5---5s3s5|

|------------|-------------|-------------|-------------|-------------|-------------------|

|0-----------|-------------|-------------|-------------|-------------|-------------------|

|0-----------|-------------|-------------|-------------|-------------|-------------------|

|7---7-----7-|----7-----7--|-----5-----5-|----5-----5--|-----3-----3-|--3s2-----2-----2--|

|7-----------|-------------|-------------|-------------|-------------|-------------------|

|5-5---5-5---|5-5---5-5---5|3-3---3-3----|3-3---3-3---3|1-1---1-1----|1-----0-0---0-0---0|

Vieni giù e non c'è da ridere, lei mi

|------------|-----------------|

|------------|-----------------|

|------------|-----------------|

|----7-----7-|-----9-9-10-10-9-|

|------------|-----------------|

|5-5---5-5---|5-5--7-7--8--8-7-|

incolla!

Chorus

|---------------|---------------|---------------|---------------|---------------|---------------------|

|---------------|---------------|---------------|---------------|---------------|---------------------|

|---------------|---------------|---------------|4-4-4-4-4-4-4-4|---------------|----------14-14-14-14|

|5-5-5-5-5-5-5-5|5-5-5-5-5-5-5-5|3-3-3-3-3-3-3-3|2-2-2-2-2-2-2-2|7-7-7-7-7-7-7-7|7-7-7-7-7------------|

|5-5-5-5-5-5-5-5|5-5-5-5-5-5-5-5|3-3-3-3-3-3-3-3|2-2-2-2-2-2-2-2|7-7-7-7-7-7-7-7|7-7-7-7-7-12-12-12-12|

|3-3-3-3-3-3-3-3|3-3-3-3-3-3-3-3|1-1-1-1-1-1-1-1|0-0-0-0-0-0-0-0|5-5-5-5-5-5-5-5|5-5-5-5-5------------|

incolla!

|---------------|---------------|---------------|---------------|-------------|-----------------|

|---------------|---------------|---------------|---------------|-------------|-----------------|

|---------------|---------------|---------------|4-4-4-4-4-4-4-4|-------------|-----------------|

|5-5-5-5-5-5-5-5|5-5-5-5-5-5-5-5|3-3-3-3-3-3-3-3|2-2-2-2-2-2-2-2|-----7-----7-|----7-----7------|

|5-5-5-5-5-5-5-5|5-5-5-5-5-5-5-5|3-3-3-3-3-3-3-3|2-2-2-2-2-2-2-2|-------------|-----------------|

|3-3-3-3-3-3-3-3|3-3-3-3-3-3-3-3|1-1-1-1-1-1-1-1|0-0-0-0-0-0-0-0|-5-5---5-5---|5-5---5-5---5s3s5|

incolla!

Verse 2 (the same as 1)

Non sono mai come mi vorrei, ora sgomma

Così fai quel che puoi per me, lei mi incolla!

[Repeat chorus]

Verse 3

|------------|-------------|-------------|-------------|-------------|-------------------|

|------------|-------------|-------------|-------------|-------------|-------------------|

|------------|-------------|-------------|-------------|-------------|-------------------|

|----7-----7-|----7-----7--|-----5-----5-|----5-----5--|-----3-----3-|--3s2-----2-----2--|

|------------|-------------|-------------|-------------|-------------|-------------------|

|5-5---5-5---|5-5---5-5---5|3-3---3-3----|3-3---3-3---3|1-1---1-1----|1-----0-0---0-0---0|

Vedi blu e ti senti fragile, ora sgomma!

|------------|----------------|---------------|---------------|---------------|---------------|

|------------|----------------|---------------|---------------|---------------|---------------|

|------------|----------------|---------------|---------------|---------------|---------------|

|----7-----7-|----7-----7-----|7-7-7-7-7-7-7-7|7-7-7-7-7-7-7-7|5-5-5-5-5-5-5-5|5-5-5-5-5-5-5-5|

|------------|----------------|7-7-7-7-7-7-7-7|7-7-7-7-7-7-7-7|5-5-5-5-5-5-5-5|5-5-5-5-5-5-5-5|

|5-5---5-5---|5-5---5-5---5s3s|5-5-5-5-5-5-5-5|5-5-5-5-5-5-5-5|3-3-3-3-3-3-3-3|3-3-3-3-3-3-3-3|

Vieni giù e non c'è da ridere

|---------------|---------------|---------------|---------------|

|---------------|---------------|---------------|---------------|

|---------------|4-4-4-4-4-4-4-4|---------------|---------------|

|3-3-3-3-3-3-3-3|2-2-2-2-2-2-2-2|7-7-7-7-7-7-7-7|7-7-7-7-7-7-7-7|

|3-3-3-3-3-3-3-3|2-2-2-2-2-2-2-2|7-7-7-7-7-7-7-7|7-7-7-7-7-7-7-7|

|1-1-1-1-1-1-1-1|0-0-0-0-0-0-0-0|5-5-5-5-5-5-5-5|5-5-5-5-5-5-5-5|

lei mi incolla!

Chorus 3

|---------------|---------------|---------------|---------------|---------------|---------------|

|---------------|---------------|---------------|---------------|---------------|---------------|

|---------------|---------------|---------------|4-4-4-4-4-4-4-4|---------------|---------------|

|5-5-5-5-5-5-5-5|5-5-5-5-5-5-5-5|3-3-3-3-3-3-3-3|2-2-2-2-2-2-2-2|7-7-7-7-7-7-7-7|7-7-7-7-7-7-7-7|

(x3)

|5-5-5-5-5-5-5-5|5-5-5-5-5-5-5-5|3-3-3-3-3-3-3-3|2-2-2-2-2-2-2-2|7-7-7-7-7-7-7-7|7-7-7-7-7-7-7-7|

|3-3-3-3-3-3-3-3|3-3-3-3-3-3-3-3|1-1-1-1-1-1-1-1|0-0-0-0-0-0-0-0|5-5-5-5-5-5-5-5|5-5-5-5-5-5-5-5|

incolla! incolla!

|---------------|---------------|---------------|----------------------|

|---------------|---------------|---------------|----------------------|

|---------------|---------------|---------------|4-4-4-4---------------|

|5-5-5-5-5-5-5-5|5-5-5-5-5-5-5-5|3-3-3-3-3-3-3-3|2-2-2-2---------------|

|5-5-5-5-5-5-5-5|5-5-5-5-5-5-5-5|3-3-3-3-3-3-3-3|2-2-2-2-2s14-14-14-14~|

|3-3-3-3-3-3-3-3|3-3-3-3-3-3-3-3|1-1-1-1-1-1-1-1|0-0-0-0---------------|

incolla!

Solo 1

|--------------------|-------------------|--------------------|-------------------|

|--------------------|-------------------|--------------------|-------------------|

|--------------------|-------------------|--------------------|-------------------|

|12-12-12-10-10-9-9-9|9-9h10p9-9h10p9-9-9|12-12-12-10-10-9-9-9|9-9h10p9-9h10p9-9-9|

|--------------------|-------------------|--------------------|-------------------|

|--------------------|-------------------|--------------------|-------------------|

Am G

|-----------------------|-----------------------|----------------|----------------|

|-----------------------|-----------------------|----------------|----------------|

|-----------------------|-----------------------|----------------|----------------|

|12-12-12-12-14-14-14-14|14-14-14-14-10-10-10-10|9-9-9-9-9-9-9-9-|7-7-7-7-7-7-7-7-|

|-----------------------|-----------------------|----------------|----------------|

|-----------------------|-----------------------|----------------|----------------|

F E Am

|--------------------|-------------------|--------------------|-------------------|

|--------------------|-------------------|--------------------|-------------------|

|--------------------|-------------------|--------------------|-------------------|

|12-12-12-10-10-9-9-9|9-9h10p9-9h10p9-9-9|12-12-12-10-10-9-9-9|9-9h10p9-9h10p9-9-9|

|--------------------|-------------------|--------------------|-------------------|

|--------------------|-------------------|--------------------|-------------------|

Am G

|---------------|---------------------|-----------------------|-----------------------|

|---------------|---------------------|-----------------------|-----------------------|

|---------------|---------------------|-----------------------|-----------------------|

|7-7-7-7-7-7-7-7|7-7-7-7-7s17-17-17-17|17-17-17-17-17-17-17-17|17-17-17-17-17-17-17-17|

|---------------|---------------------|-----------------------|-----------------------|

|---------------|---------------------|-----------------------|-----------------------|

F E Am

|-----------------------|-----------------------|-----------------------|----------------------|

|-----------------------|-----------------------|-----------------------|----------------------|

|-----------------------|-----------------------|-----------------------|----------------------|

|14-14-14-15-15-17-17-17|14-14-14-15-15-17-17-17|14-14-14-14-14-14-14-14|12-12-10-10-10-10-10-9|

|-----------------------|-----------------------|-----------------------|----------------------|

|-----------------------|-----------------------|-----------------------|----------------------|

Am G

|---------------|---------------------|---------------|----------------|-----------|-----------|

|---------------|---------------------|---------------|----------------|-----------|-----------|

|---------------|---------------------|---------------|----------------|-----------|-----------|

|9-9-9-9-9-9-9-9|12-12-10-10-9-9-9-9-7|7-7-7-7-7-7-7-7|5-5-5-5-4-4-4-4-|2~---------|-----------|

|---------------|---------------------|---------------|----------------|-----------|-----------|

|---------------|---------------------|---------------|----------------|-----------|-----------|

F E Am Am

|---------------|----------------|----------------|----------------|

|---------------|----------------|----------------|----------------|

|---------------|----------------|----------------|----------------|

|---------------|----------------|----------------|----------------|

|---------------|----------------|----------------|----------------|

|---------------|----------------|----------------|----------------|

G F E

Solo 2

|---------------------------------------|--------------------------|-------------------------------|

|---------------------------------------|--------------------------|-------------------------------|

|---------------------------------------|--------------------------|-----------------------14p12-16|

|12p10h12p10h12p10h12p10-9p7-7p5-5-7p5-5|12p10-10p9-9p7-7p5-5-7p5-5|12p10-14p12-15p14-17p15--------|

|---------------------------------------|--------------------------|-------------------------------|

|---------------------------------------|--------------------------|-------------------------------|

Am G F E

|---------------------------|-----------------------------------|----------------------------|

|---------------------------|-----------------------------------|----------------------------|

|17-16-14-12-14-16-16-16-16b|14~--12-14-12-12~-12h14-14-14-14p12|9-9-9-9-10h12~-9-9-9-9-10h12|

|---------------------------|-----------------------------------|----------------------------|

|---------------------------|-----------------------------------|----------------------------|

|---------------------------|-----------------------------------|----------------------------|

Am G F E

|----------------|----------------|------------------------------|

|----------------|----------------|------------------------------|

|-9~---9-7-7-5-5-|-4~--7-7-5--4-4-|------------------------------|

|----------------|----------------|5s7-9-9h10-5-5s7-9-9h10-5-5s7~|

|----------------|----------------|------------------------------|

|----------------|----------------|------------------------------|

Am G F E

Get this song at:  amazon.com sheetmusicplus.com

Share your thoughts

0 Comments found