Verdena

Verdena - Elefante guitar tab

ELEFANTE

Verdena

Album: Il suicidio dei samurai, 2004

Tabbed by Denial Guitar (DenialGtr@hotmail.com)

Drop Db tuning (Db Ab Db Gb Bb eb)

Intro

|-----------------|-----------------|-----------------|-----------------|

|-----------------|-----------------|-----------------|-----------------|

|-----------------|-----------------|-----------------|-----------------|

|-5-5-5-5-5-5-5-5-|-5-5-5-5-8-8-8-8-|-5-5-5-5-5-5-5-5-|-5-5-5-5-8-8-8-8-|

|-5-5-5-5-5-5-5-5-|-----------------|-5-5-5-5-5-5-5-5-|-----------------|

|-5-5-5-5-5-5-5-5-|-----------------|-5-5-5-5-5-5-5-5-|-----------------|

Verse 1 (intro x4)

Blu, l'impero è blu, è questo che mi

manca e mi provoca

Più, direi di più, della tua pelle in

fumo che mi soffoca

Chorus

|-------------------------|-------------------------|

|-------------------------|-------------------------|

|-10-10-10-10-10-10-10-10-|-10-10-10-10-12-12-12-12-|

|-------------------------|-------------------------| (x2)

|-8--8--8--8--8--8--8--8--|--8--8--8--8-10-10-10-10-|

|-------------------------|-------------------------|

Precipita...

la verità !

|-----------------|---------------------|

|-----------------|---------------------|

|-----------------|---------------------|

|-8-8-8-8-8-8-8-8-|-8-8-8-8-10-10-10-10-| (x2)

|-8-8-8-8-8-8-8-8-|-8-8-8-8-10-10-10-10-|

|-8-8-8-8-8-8-8-8-|-8-8-8-8-10-10-10-10-|

è solo un po'... più...

debole!

Verse 2 (the same as 1)

Giù, mi paro e giù, è come scura e

gonfia la mia satira

Blu, l’impero è blu, questa è la cura

in rima, ci soddisferà 

[Repeat chorus]

Bridge

|--------------|

|--------------|

|--------------|

|-8h10-0-0-0-0-| (x12)

|-8h10-0-0-0-0-|

|-8h10-0-0-0-0-|

|--------------|--------------|--------------|----------------|

|--------------|--------------|--------------|----------------|

|--------------|--------------|--------------|----------------|

|-8h10-0-0-0-0-|-8h10-0-0-0-0-|-8h10-0-0-0-0-|-8h10-----------|

|-8h10-0-0-0-0-|-8h10-0-0-0-0-|-8h10-0-0-0-0-|-8h10-8h10-8h10-|

|-8h10-0-0-0-0-|-8h10-0-0-0-0-|-8h10-0-0-0-0-|-8h10-----------|

---(x3)

|--------------|--------------|--------------|----------------|

|--------------|--------------|--------------|----------------|

|--------------|--------------|--------------|----------------|

|-8h10-0-0-0-0-|-8h10-0-0-0-0-|-8h10-0-0-0-0-|-8h10---10--10--|

|-8h10-0-0-0-0-|-8h10-0-0-0-0-|-8h10-0-0-0-0-|-8h10---10--10--|

|-8h10-0-0-0-0-|-8h10-0-0-0-0-|-8h10-0-0-0-0-|-8h10---10--10--|

|--------------|--------------|--------------|----------------|

|--------------|--------------|--------------|----------------|

|--------------|--------------|--------------|----------------|

|-8h10-0-0-0-0-|-8h10-0-0-0-0-|-8h10-0-0-0-0-|-8h10-----------|

|-8h10-0-0-0-0-|-8h10-0-0-0-0-|-8h10-0-0-0-0-|-8h10-8h10-8h10-|

|-8h10-0-0-0-0-|-8h10-0-0-0-0-|-8h10-0-0-0-0-|-8h10-----------|

|--------------|

|--------------|

|--------------|

|-8h10-0-0-0-0-| (x16)

|-8h10-0-0-0-0-|

|-8h10-0-0-0-0-|

[Repeat intro and chorus]

Verse 3 (the same as 1)

Boom, mi sparo boom, se la mia pelle è

in fumo la tua soffoca

La tua soffoca, la tua soffoca!

La tua soffoca, la tua soffoca, la tua soffoca!

Get this song at:  amazon.com sheetmusicplus.com

Share your thoughts

0 Comments found