Verdena

Verdena - Dentro Sharon guitar tab

DENTRO SHARON

Verdena

Album: Verdena, 1999

Tabbed by Denial Guitar (DenialGtr@hotmail.com)

Drop Db tuning (Db Ab Db Gb Bb eb)

Verse

|------------------|---------------------|

|------------------|---------------------|

|------7s9-9s10-10-|---------------------|

|-0-0--------------|-8-8-10-10-10-10-8-8-| (x8)

|-0-0--5s7-7s8--8--|-8-8--8--8--8--8-8-8-|

|-0-0--------------|-8-8--8--8--8--8-8-8-|

Tremi un po'

e non è facile

urlare nei rumori tuoi

per te

Dentro Sharon

nell'immagine

perdo spesso un po' di me

in te

Chorus

|-----------|-----------------------|-----------------|-----------------|

|-----------|-----------------------|-----------------|-----------------|

|-----------|-----------------------|-----------------|-----------------|

|-5---------|-5-5-5-5-5s17-17-17-17-|-8-8-8-8-8-8-8-8-|-8-8-8-8-8-8-8-8-|

|-5---------|-5-5-5-5-5s17-17-17-17-|-8-8-8-8-8-8-8-8-|-8-8-8-8-8-8-8-8-|

|-5---------|-5-5-5-5-5s17-17-17-17-|-8-8-8-8-8-8-8-8-|-8-8-8-8-8-8-8-8-|

Ebbene posso insistere

|-----------|-----------------------|-----------------|------------------------|

|-----------|-----------------------|-----------------|------------------------|

|-----------|-----------------------|-----------------|------------------------|

|-5---------|-5-5-5-5-5s17-17-17-17-|-8-8-8-8-8-8-8-8-|10-10-10-10-10-10-------|

|-5---------|-5-5-5-5-5s17-17-17-17-|-8-8-8-8-8-8-8-8-|10-10-10-10-10-10-------|

|-5---------|-5-5-5-5-5s17-17-17-17-|-8-8-8-8-8-8-8-8-|10-10-10-10-10-10-s17s0-|

Confusione!

Post-chorus 1

|-----------------|-------------------|------------------|----------------------|

|-----------------|-------------------|------------------|----------------------|

|------7s9-9s10-10|-------------------|------7s10s9-9s7-7|----------------------|

|-0-0-------------|8-8-10-10-10-10-8-8|-0-0--------------|8-8-10-10-10-10-------|

|-0-0--5s7-7s8--8-|8-8--8--8--8--8-8-8|-0-0--5s8-s7-7s5-5|8-8--8--8--8--8-------|

|-0-0-------------|8-8--8--8--8--8-8-8|-0-0--------------|8-8--8--8--8--8-s17s0-|

|-----------------|-------------------|------------------|--------------------|

|-----------------|-------------------|------------------|--------------------|

|------7s9-9s10-10|-------------------|------7s10s9-9s7-7|--------------------|

|-0-0-------------|8-8-10-10-10-10-8-8|-0-0--------------|-8------------------|

|-0-0--5s7-7s8--8-|8-8--8--8--8--8-8-8|-0-0--5s8-s7-7s5-5|-8------------------|

|-0-0-------------|8-8--8--8--8--8-8-8|-0-0--------------|-8------------------|

Verse 2

Già  da un po'

sono agli ordini

i tuoi occhi su di me

oh no

Dentro Sharon

nell'immagine

fuori il mondo grida e qui

io e te

[Repeat chorus]

Post-chorus 2

|-----------------|-------------------|------------------|----------------------|

|-----------------|-------------------|------------------|----------------------|

|------7s9-9s10-10|-------------------|------7s10s9-9s7-7|----------------------|

|-0-0-------------|8-8-10-10-10-10-8-8|-0-0--------------|8-8-10-10-10-10-------| (x2)

|-0-0--5s7-7s8--8-|8-8--8--8--8--8-8-8|-0-0--5s8-s7-7s5-5|8-8--8--8--8--8-------|

|-0-0-------------|8-8--8--8--8--8-8-8|-0-0--------------|8-8--8--8--8--8-s17s0-|

Bridge

|-----------------|-----------------|-----------------|-------------------|

|-----------------|-----------------|-----------------|-------------------|

|-----------------|-----------------|-----------------|-------------------|

|-0-0-10-10h12-12-|-0-0-10-10h12-12-|-3-3-5-5-5-5-3-3-|8-8-10-10-10-10-8-8| (x4)

|-0-0-10-10h12-12-|-0-0-10-10h12-12-|-3-3-3-3-3-3-3-3-|8-8--8--8--8--8-8-8|

|-0-0-10-10h12-12-|-0-0-10-10h12-12-|-3-3-3-3-3-3-3-3-|8-8--8--8--8--8-8-8|

(anly bass and drums on bridge theme x2: ...Sha...Sharon...Sha...Sharon woh!)

|-----------------|-------------------|------------------|----------------------|

|-----------------|-------------------|------------------|----------------------|

|------7s9-9s10-10|-------------------|------7s10s9-9s7-7|----------------------|

|-0-0-------------|8-8-10-10-10-10-8-8|-0-0--------------|8-8-10-10-10-10-------|

|-0-0--5s7-7s8--8-|8-8--8--8--8--8-8-8|-0-0--5s8-s7-7s5-5|8-8--8--8--8--8-------|

|-0-0-------------|8-8--8--8--8--8-8-8|-0-0--------------|8-8--8--8--8--8-s17s0-|

[Repeat chorus and post-chorus 1]

Get this song at:  amazon.com sheetmusicplus.com

Share your thoughts

0 Comments found