Verdena

Verdena - Dentro Sharon bass tab

Verdena

DENTRO SHARON

Drop D-tuning

Strofe      

G|---------------------------------------------------

D|---------------------------------------------------

A|------5-7-8-------------------5-7-8----------------

D|-0-0---------8-8-8-8-8-7-0-0---------8-8-8-8-8-8-10    

Prima del ritornello  

G|----

D|-5/-

A|----

D|----

"ebbene posso insistere........confusione!"

G|----------------------------------------------

D|----------------------------------------------

A|----------------------------------------------                                                                            

D|8-8-8-8-8-8-8-8-5/-----8-8-8-8-8-8-10-10-0-0--          

G|-----------------------------------------------------

D|-----------------------------------------------------

A|--5-7-8-------------------------8-7-5----------------

D|---------8-8-8-8-8-8-8-7-0-0-----------8-8-8-8-8-8_10

"Sharon! Sharon! Sha!Sharon!"

G|--------------------------------------------------

D|--------------------------------------------------

A|------3-5-5-5------3-5-5-5------------------------

D|0-0-----------0-0------------3-3-3-3-38-8-8-8-8-8-

/= slide

^= bend

x= armonica (queste note sfiorando solo le corde)

per suggerimenti o rimproveri scrivi a: gallottaluigi@tin.it

Get this song at:  amazon.com sheetmusicplus.com

Share your thoughts

0 Comments found