Verdena

Verdena - Dentro Sharon Bass guitar tab

Song : Dentro Sharon

Artist: Verdena

Album : Verdena

Tab : Marco "o' Pastore" and

Axl webmaster at tabs-database.com.com

Ascolta il cd per il tempo!!!

Strofa

G|---------------------------|

D|---------------------------|

A|-4-4-4-4-6-6/7-7-7---------|

E|-------------------5-5-5-5-|

Ritornello

G|--------------------------|

D|--------------------------|

A|--------------------------|

E|-2--5-5-5-5--2-2-2-2------|

Variazione

G|-------4h6---------|

D|-------------------|

A|--44---------------|

E|------------5------|

"Sharon...."Added by tabs-database.com and our distinguished partners

Get this song at:  amazon.com sheetmusicplus.com

Share your thoughts

0 Comments found