Verdena

Verdena - Cretina guitar tab

CRETINA

Verdena

From: Viba EP

Tabbed by Denial Guitar (DenialGtr@hotmail.com)

Tune 1/2 step down (Eb Ab Db Gb Bb eb)

|-----------|-----------|-----------|-----------|

|---4---4---|---3---3---|---8---8---|---7---7---|

|-5---5-----|-5---5-----|-9---9-----|-9---9-----|

|-----------|-----------|-----------|-----------| (x4)

|-----------|-----------|-----------|-----------|

|-----------|-----------|-----------|-----------|

|-------------------|-------------------|

|----12----12----12-|----12----13----13-|

|-13----13----13----|-13----13----13----|

|-------------------|-------------------| (x4)

|-------------------|-------------------|

|-------------------|-------------------|

|-----------|-----------|-----------|-----------|

|---4---4---|---3---3---|---8---8---|---7---7---|

|-5---5-----|-5---5-----|-9---9-----|-9---9-----|

|-----------|-----------|-----------|-----------| (x2)

|-----------|-----------|-----------|-----------|

|-----------|-----------|-----------|-----------|

|-------------------|-------------------|

|----12----12----12-|----12----13----13-|

|-13----13----13----|-13----13----13----|

|-------------------|-------------------| (x4)

|-------------------|-------------------|

|-------------------|-------------------|

|--------|--------|--------|---------------|--------|--------|--------|----------------|

|16-(x8)-|16-(x8)-|18-(x8)-|18-(x4)-20(x4)-|21-(x8)-|21-(x8)-|20-(x8)-|20-(x4)-18-(x4)-|

|--------|--------|--------|---------------|--------|--------|--------|----------------|

|--------|--------|--------|---------------|--------|--------|--------|----------------|

|--------|--------|--------|---------------|--------|--------|--------|----------------|

|--------|--------|--------|---------------|--------|--------|--------|----------------|

|--------|----------------|--------|---------------|--------|--------|--------|--------|

|16-(x8)-|16-(x4)-14-(x4)-|13-(x8)-|13(x4)-16-(x4)-|18-(x8)-|18-(x8)-|20-(x8)-|20-(x8)-|

|--------|----------------|--------|---------------|--------|--------|--------|--------|

|--------|----------------|--------|---------------|--------|--------|--------|--------|

|--------|----------------|--------|---------------|--------|--------|--------|--------|

|--------|----------------|--------|---------------|--------|--------|--------|--------|

|-----------|-----------|-----------|-----------|

|---4---4---|---3---3---|---8---8---|---7---7---|

|-5---5-----|-5---5-----|-9---9-----|-9---9-----|

|-----------|-----------|-----------|-----------| (x4)

|-----------|-----------|-----------|-----------|

|-----------|-----------|-----------|-----------|

Get this song at:  amazon.com sheetmusicplus.com

Share your thoughts

0 Comments found