Verdena

Verdena - Corteccia guitar tab

CORTECCIA

Verdena

From: Elefante EP, 2004

Tabbed by Denial Guitar (DenialGtr@hotmail.com)

Standard tuning (E A D G B e)

Main riff

|---------|---------|---------|---------|---------|---------|---------|---------|

|-----0---|-----2---|-----1---|-----1---|-----1---|-----0---|-----1---|-----0---|

|---0---0-|---2---2-|---2---2-|---2---2-|---2---2-|---2---2-|---2---2-|---2---2-|

|---------|---------|---------|---------|---------|---------|---------|---------|

|---------|-0-------|---------|-1-------|-0-------|---------|-0-------|---------|

|-0-------|---------|-1-------|---------|---------|-0-------|---------|-0-------|

Em A F Bb Am Esus4 Am Esus4

|---------|---------|---------|---------|---------|---------|---------|---------|

|-----3---|-----1---|-----1---|-----1---|-----1---|-----0---|-----1---|-----0---|

|---3---3-|---2---2-|---2---2-|---2---2-|---2---2-|---2---2-|---2---2-|---2---2-|

|---------|---------|---------|---------|---------|---------|---------|---------|

|---------|---------|-1-------|-1-------|-0-------|---------|-0-------|---------|

|-3-------|-1-------|---------|---------|---------|-0-------|---------|-0-------|

Gm F Bb Bb Am Esus4 Am Esus4

Coda

|----------------|----0-----0--|

|----------------|----1-----0--|

|----------------|----2-----2--|

|-------0-2-0----|----2-----2--|

|-0-2-3-------3--|-0-----------|

|----------------|-------0-----|

Am Esus4

Come sto se vedo a malapena

Mi perdo nei giorni neri, li crei tu

Fai di me l'anima più fredda

Ci sei tu nelle mie vene e le curi pure

(...)

Se affondo nell'apnea non dormo più

Quante sono le risposte

Ti prendi il mondo intero e non torni più

(...)

Se affondo nell'apnea non piove più

(...)

Dove sto se ti vedo in bocca

E' come sparare al sole che non c'è più

Ma dopo un po' ritorna e commuove sempre

Se affondo nell'apnea

Questa è la canzone per lei

che infetta la ragione lo sai

Tra mille mie parole ci sei

ma non mi avrai

Questo non è giusto però

spero rimarrai per un po'

Tra mille combustioni ci sei

ma non mi avrai (x4)

Get this song at:  amazon.com sheetmusicplus.com

Share your thoughts

0 Comments found