Verdena

Verdena - Caramelpop guitar tab

CARAMELPOP

Verdena

Album: Verdena, 1999

Tabbed by Denial Guitar (DenialGtr@hotmail.com)

Tune 1/2 step down (Eb Ab Db Gb Bb eb)

Guitar 1 through the whole song:

|-------|-------|--------|--------|-------|-------|--------|-----------------|

|-------|-------|--------|--------|-------|-------|--------|-----------------|

|-7-(x8)|-7-(x8)|-11-(x8)|-16-(x8)|-7-(x8)|-7-(x8)|-11-(x8)|-18-(x4)--19-(x4)|

|-0-----|-0-----|-0------|-0------|-0-----|-0-----|-0------|-0--------0------|

|-------|-------|--------|--------|-------|-------|--------|-----------------|

|-------|-------|--------|--------|-------|-------|--------|-----------------|

Guitar 2 after 16 measures:

|------------------|--------|--------|------------------|

|------------------|--------|--------|------------------|

|12-12-12h14-14-14-|-11-(x8)|-11-(x8)|12-12-12h14-14-14-|

|-0--0--0-----0--0-|--0-----|--0-----|-0--0--0-----0--0-|

|------------------|--------|--------|------------------|

|------------------|--------|--------|------------------|

x______(x4)______x x______(x2)______x

|--------|--------|------------------|--------|--------|-------|------------|

|--------|--------|------------------|--------|--------|-------|------------|

|-11-(x8)|-11-(x8)|12-12-12h14-14-14-|-11-(x8)|-11-(x8)|-6-(x8)|-9(x4)-7(x4)|

|--0-----|--0-----|-0--0--0-----0--0-|--0-----|--0-----|-0-----|-0-----0----|

|--------|--------|------------------|--------|--------|-------|------------|

|--------|--------|------------------|--------|--------|-------|------------|

x______(x2)______x

|-------|-------|-------|-------|-------|-------|-------|-------------|

|-------|-------|-------|-------|-------|-------|-------|-------------|

|-7-(x8)|-7-(x8)|-6-(x8)|-9-(x8)|-7-(x8)|-7-(x8)|-6-(x8)|-9(x4)-11(x4)|

|-0-----|-0-----|-0-----|-0-----|-0-----|-0-----|-0-----|-0------0----|

|-------|-------|-------|-------|-------|-------|-------|-------------|

|-------|-------|-------|-------|-------|-------|-------|-------------|

|------------------|--------|--------|-------|------------|

|------------------|--------|--------|-------|------------|

|12-12-12h14-14-14-|-11-(x8)|-11-(x8)|-6-(x8)|-9(x4)-7(x4)|

|-0--0--0-----0--0-|--0-----|--0-----|-0-----|-0-----0----|

|------------------|--------|--------|-------|------------|

|------------------|--------|--------|-------|------------|

x______(x4)______x

Now guitar 2 stops for 16 measures then restart:

|------------------|--------|--------|------------------|

|------------------|--------|--------|------------------|

|12-12-12h14-14-14-|-11-(x8)|-11-(x8)|12-12-12h14-14-14-|

|-0--0--0-----0--0-|--0-----|--0-----|-0--0--0-----0--0-|

|------------------|--------|--------|------------------|

|------------------|--------|--------|------------------|

x______(x4)______x x______(x2)______x

|--------|--------|-------|---------------|-------|-------|-------|-------------|

|--------|--------|-------|---------------|-------|-------|-------|-------------|

|-11-(x8)|-11-(x8)|-6-(x8)|-9-(x4)--7-(x4)|-7-(x8)|-7-(x8)|-6-(x8)|-9(x4)-11(x4)|

|--0-----|--0-----|-0-----|-0-------0-----|-0-----|-0-----|-0-----|-0------0----|

|--------|--------|-------|---------------|-------|-------|-------|-------------|

|--------|--------|-------|---------------|-------|-------|-------|-------------|

|------|------|-----|-----------|------------|------------|-------|-------------|

|------|------|-----|-----------|------------|------------|-------|-------------|

|11(x8)|11(x8)|6(x8)|9(x4)-7(x4)|7(x4)-11(x4)|7(x4)-11(x4)|-6-(x8)|-9(x4)-11(x4)|

|-0----|-0----|0----|0-----0----|0------0----|0------0----|-0-----|-0------0----|

|------|------|-----|-----------|------------|------------|-------|-------------|

|------|------|-----|-----------|------------|------------|-------|-------------|

|------------------|-------|-------|-------|------------------|-------|------|

|------------------|-------|-------|-------|------------------|-------|------|

|12-12-12h14-14-14-|18-(x8)|21-(x8)|19-(x8)|19(x4)-18-18-16-16|18-(x8)|21(x8)|

|-0--0--0-----0--0-|-0-----|-0-----|-0-----|-0------0--0--0--0|-0-----|-0----|

|------------------|-------|-------|-------|------------------|-------|------|

|------------------|-------|-------|-------|------------------|-------|------|

x______(x2)______x

Then Guitar 2 continues for 16 measures...

Get this song at:  amazon.com sheetmusicplus.com

Share your thoughts

0 Comments found