Verdena

Verdena - Caramel Pop guitar tab

Artist: Verdena

Song: Caramel pop

Album: Verdena

Tabbed by kurt826

Tuning: Eb Ab Db Gb Bb eb

Guitar 1:

Riff A:

e |----------------------------------------------------------------------------|

B |----------------------------------------------------------------------------|

G |----------------------------------------------------------------------------|

D |---------------------------------3-3-3-3-3-3-3/8-8-8-8-8-8-8~---------------|

A |-4-4-4-4-4-4-4-4-4-4-4-4-4-4-4-4--------------------------------------------|

E |----------------------------------------------------------------------------|

e |----------------------------------------------------------------------------|

B |----------------------------------------------------------------------------|

G |----------------------------------------------------------------------------|

D |---------------------------------3-3-3-3-3-3-3/10-10-10-10-10/11-11--------|

A |-4-4-4-4-4-4-4-4-4-4-4-4-4-4-4-4--------------------------------------------|

E |----------------------------------------------------------------------------|

Riff B:

e |----------------------------------------------------------------------------|

B |----------------------------------------------------------------------------|

G |----------------------------------------------------------------------------|

D |---------------------------------3-3-3-3-3-3-3/8-8-8-8-8-8-8~---------------|

A |-4-4-4-4-4-4-4-4-4-4-4-4-4-4-4-4--------------------------------------------|

E |----------------------------------------------------------------------------|

e |----------------------------------------------------------------------------|

B |----------------------------------------------------------------------------|

G |---------------------------------5-5-5-5-5-5-5/8-8-8-8-8-8/10-10------------|

D |---------------------------------3-3-3-3-3-3-3/6-6-6-6-6-6/-8-8-------------|

A |-4-4-4-4-4-4-4-4-4-4-4-4-4-4-4-4--------------------------------------------|

E |----------------------------------------------------------------------------|

Riff A (x1)

Riff B (x1)

Riff A (util the end.)

Guitar 2:

(starts with drum after riff a and riff b)

e |----------------------------------------------------------------------------|

B |-7/9~--9---97---7/9~--9---97---7/9~--9---97---7/9-9-96...--6...--6...--6...--6--|

G |----------------------------------------------------------------------------|

D |----------------------------------------------------------------------------|

A |----------------------------------------------------------------------------|

E |----------------------------------------------------------------------------|

e |----------------------------------------------------------------------------|

B |-7/9~--9---97---7/9-9-96...--6...--6...--6---7/9-9-97---7/9-9-96...--6...--6...--6--|

G |----------------------------------------------------------------------------|

D |----------------------------------------------------------------------------|

A |----------------------------------------------------------------------------|

E |----------------------------------------------------------------------------|

e |----------------------------------------------------------------------------|

B |----------------------------------------------------------------------------|

G |5...-5...--8...-8...--6...-6...--6...-6...--5...-5...--8...-8...--6...-6...--6...-6...--5...-5...--8...-8/10-10-10|

D |----------------------------------------------------------------------------|

A |----------------------------------------------------------------------------|

E |----------------------------------------------------------------------------|

e |----------------------------------------------------------------------------|

B |-7/9~--9---97---7/9~--9---97---7/9~--9---97---7/9-9-96...--6...--6...--6...--6--|

G |----------------------------------------------------------------------------|

D |----------------------------------------------------------------------------|

A |----------------------------------------------------------------------------|

E |----------------------------------------------------------------------------|

e |----------------------------------------------------------------------------|

B |----------------------------------------------------------------------------|

G |5...-5...--8...-8-------------------------------------------------------------------|

D |----------------------------------------------------------------------------|

A |----------------------------------------------------------------------------|

E |----------------------------------------------------------------------------|

e |----------------------------------------------------------------------------|

B |---7/9~-9---97--7-7/9~--9---97----7/9~--9---97----7/9-9-96...--6...--6...--6...-|

G |----------------------------------------------------------------------------|

D |----------------------------------------------------------------------------|

A |----------------------------------------------------------------------------|

E |----------------------------------------------------------------------------|

e |----------------------------------------------------------------------------|

B |7-7/9~-9-97--7-7/9-9--6...--6...--6...--6...--5...-5...-5...-5...--8...-8...-8...-8...--6...-6...-6...-6...|

G |----------------------------------------------------------------------------|

D |----------------------------------------------------------------------------|

A |----------------------------------------------------------------------------|

E |----------------------------------------------------------------------------|

e |----------------------------------------------------------------------------|

B |----------------------------------------------------------------------------|

G |--5...-5...-5...-5...--8...-8...-8...-8.../10-10-6...-6...-6...-6...--5...-5...-5...-5...-8...-8...-8...-8...------|

D |----------------------------------------------------------------------------|

A |----------------------------------------------------------------------------|

E |----------------------------------------------------------------------------|

e |----------------------------------------------------------------------------|

B |----------------------------------------------------------------------------|

G |--6...-6...-6...-6.../10-10-6-6...-6...-6.../10-10-5-5-5-5-5-5-5-5-8-8-8-8-8/10-10-10--|

D |----------------------------------------------------------------------------|

A |----------------------------------------------------------------------------|

E |----------------------------------------------------------------------------|

e |----------------------------------------------------------------------------|

B |-7-7-7/9-9-9--7-7-7/9-9-9-9-5-5-5-5-5-5-5-5/8-8-8-8-8-8-8-86...-6...-6...-6...-6...|

G |----------------------------------------------------------------------------|

D |----------------------------------------------------------------------------|

A |----------------------------------------------------------------------------|

E |----------------------------------------------------------------------------|

e |----------------------------------------------------------------------------|

B |6-5~3-3/5-5-5-5-5-5-5-5-8-8-8-8-8-8-8-86...-108-8--8/10-10-6-6-6-6-6-6-6-6-|

G |----------------------------------------------------------------------------|

D |----------------------------------------------------------------------------|

A |----------------------------------------------------------------------------|

E |----------------------------------------------------------------------------|

e |----------------------------------------------------------------------------|

B |6/8-8-8-8/10-10-10-106~----------------------------------------------------|

G |----------------------------------------------------------------------------|

D |----------------------------------------------------------------------------|

A |----------------------------------------------------------------------------|

E |----------------------------------------------------------------------------|

end...

Get this song at:  amazon.com sheetmusicplus.com

Share your thoughts

0 Comments found