Verdena

Verdena - Cara Prudenza guitar tab

CARA PRUDENZA

Verdena

Album: Solo un grande sasso, 2001

Tabbed by Denial Guitar (webmaster at tabs-database.com.com)

Tune 1/2 step down (Eb Ab Db Gb Bb eb)

Intro

|-0-0-0--0--------|--0--0--0---0--------|

|-7-7-7--7--------|--0--0--0--10--------|

|-0-0-0--0--------|--0--0--0---0--------|

|-9-9-9--9--------|--9--9--9---9--------| (x2)

|-9-9-9--9--------|-10-10-10--10--------|

|-----------------|---------------------|

Main riff

|-0-0-0--0---------|--0--0--0--0----------------|

|-7-7-7--7---7-7-7-|--0--0--0-10---10-10s12-12s-|

|-0-0-0--0---0-0-0-|--0--0--0--0----0--0--0--0--|

|-9-9-9--9---9-9-9-|--9--9--9--9----x--x--x--xs-| (x3)

|-9-9-9--9---9-9-9-|-10-10-10-10---10-10s12-12s-|

|------------------|----------------------------|

|-0-0-0--0---------|---------------------------|

|-7-7-7--7---7-7-7-|10-10--10-10--10-10--10-10-|

|-0-0-0--0---0-0-0-|-0--0---0--0---0--0---0--0-|

|-9-9-9--9---9-9-9-|-9--9---9--9---9--9---9--9-|

|-9-9-9--9---9-9-9-|10-10--10-10--10-10--10-10-|

|------------------|---------------------------|

Verse 1

|-----------|-----------|-----------|-----------|---------8-|---------7-|

|---------7-|---------7-|--------10-|---------7-|-----------|-----------|

|-----0-----|-----0-----|-----0-----|-----0-----|-----0-----|-----0-----|

|-9---------|-9---------|-9---------|-9---------|-9---------|-9---------| (x2)

|-----------|-----------|-----------|-----------|-----------|-----------|

|-----------|-----------|-----------|-----------|-----------|-----------|

A quanto pare sei più lucida di me così lo scoprirai

da te, da te, sei consapevole di non sentirti più

|--0--------|--0--------|

|--7--------|--7--------|

|--0--------|--0--------|

|--9--------|--9--------|

|--9--------|--9--------|

|-----------|-----------|

in me!

Chorus 1

|-0-0-0--0---------|--0--0--0--0----------------|

|-7-7-7--7---7-7-7-|--0--0--0-10---10-10s12-12s-|

|-0-0-0--0---0-0-0-|--0--0--0--0----0--0--0--0--|

|-9-9-9--9---9-9-9-|--9--9--9--9----x--x--x--xs-| (x3)

|-9-9-9--9---9-9-9-|-10-10-10-10---10-10s12-12s-|

|------------------|----------------------------|

in me! In ogni crimine che sei

In ogni crimine che fai

In ogni crimine che sei

|-0-0-0--0---------|---------------------------|

|-7-7-7--7---7-7-7-|10-10--10-10--10-10--10-10-|

|-0-0-0--0---0-0-0-|-0--0---0--0---0--0---0--0-|

|-9-9-9--9---9-9-9-|-9--9---9--9---9--9---9--9-|

|-9-9-9--9---9-9-9-|10-10--10-10--10-10--10-10-|

|------------------|---------------------------|

In ogni crimine!!!

Verse 2 (the same as 1)

La mia mediocrità  è la mia agilità , sei porpora oddio

chi sei, chi sei? Allenati con me, immergimi nei tuoi

perchè

Chorus 2

|-0-0-0--0---------|--0--0--0--0----------------|

|-7-7-7--7---7-7-7-|--0--0--0-10---10-10s12-12s-|

|-0-0-0--0---0-0-0-|--0--0--0--0----0--0--0--0--|

|-9-9-9--9---9-9-9-|--9--9--9--9----x--x--x--xs-|

|-9-9-9--9---9-9-9-|-10-10-10-10---10-10s12-12s-|

|------------------|----------------------------|

in me! In ogni crimine che sei

|-0-0-0--0---------|---------------------------|

|-7-7-7--7---7-7-7-|10-10--10-10--10-10--10-10-|

|-0-0-0--0---0-0-0-|-0--0---0--0---0--0---0--0-|

|-9-9-9--9---9-9-9-|-9--9---9--9---9--9---9--9-|

|-9-9-9--9---9-9-9-|10-10--10-10--10-10--10-10-|

|------------------|---------------------------|

In ogni crimine!!!

Solo

|------------------|-----------------|--------------------------|-------------------|

|------------------|-----------------|--------------------------|----------12-13-15-|

|-12~--------12h14-|-14b~---14-12-11-|--------------------12h14-|-11-12-14----------|

|------12h14-------|-----------------|-12s14-14-12~-12h14-------|-------------------|

|------------------|-----------------|--------------------------|-------------------|

|------------------|-----------------|--------------------------|-------------------|

|-----------------------------------------|-----------------------------------------|

|-17b-17-17-17b-17-17-17b-17-17-17b-17-17-|-17b-17-17-17b-17-17-17b-17-17-17b-17----|

|-----------------------------------------|--------------------------------------16-|

|-----------------------------------------|-----------------------------------------|

|-----------------------------------------|-----------------------------------------|

|-----------------------------------------|-----------------------------------------|

|-----------------------|--------------12-15-|-14~--15-14-14b-|-10s12~-10h12p10-----|

|-----------------------|-----12-13-15-------|----------------|------------------13-|

|12~--------12h14-11-12-|-14b----------------|----------------|---------------------|

|-----12h14-------------|--------------------|----------------|---------------------|

|-----------------------|--------------------|----------------|---------------------|

|-----------------------|--------------------|----------------|---------------------|

in ogni crimine che...

|-----------------|-------------|------------------|-------------|------------------|

|-12~-------------|-------------|------------------|-------------|------------------|

|-----------12h14-|-11~---12-14-|-16~--------12h14-|-11~---11-12-|-14~--------12h14-|

|-----12h14-------|-------------|------12h14-------|-------------|------12h14-------|

|-----------------|-------------|------------------|-------------|------------------|

|-----------------|-------------|------------------|-------------|------------------|

sei... in ogni crimine che fai... in ogni crimine che sei in ogni...

|---------------|--------------------------|-----------------|--------------|-----------|

|---------------|--------------------------|12-13-12---------|--------------|-----------|

|16b-16b-16b-16b|16-14-12-11-12-------12-14|---------14-12-14|11-12-12s14~--|-----------|

|---------------|---------------12-14------|-----------------|--------------|12-12s14~--|

|---------------|--------------------------|-----------------|--------------|-----------|

|---------------|--------------------------|-----------------|--------------|-----------|

crimine! ...mine!!!

Coda

|-----------|

|---------7-|

|-----0-----|

|-9---------| (x8 start from the last measure of solo)

|-----------|

|-----------|

|---------7-|-----------|---------7-|-----------|

|-----------|--------10-|-----------|--------10-|

|-----0-----|-----0-----|-----0-----|-----0-----|

|-9---------|-9---------|-9---------|-9---------|

|-----------|-----------|-----------|-----------|

|-----------|-----------|-----------|-----------|

E ancora io no so le cose che dirò...

|-0-0-0--0--------|--0--0--0---0--------|

|-7-7-7--7--------|--0--0--0--10--------|

|-0-0-0--0--------|--0--0--0---0--------|

|-9-9-9--9--------|--9--9--9---9--------| (x3)

|-9-9-9--9--------|-10-10-10--10--------|

|-----------------|---------------------|

di te!

|-0-0-0--0--------|

|-7-7-7--7--------|

|-0-0-0--0--------|

|-9-9-9--9--------|

|-9-9-9--9--------|

|-----------------|

di te!

Added by tabs-database.com and our distinguished partners

Get this song at:  amazon.com sheetmusicplus.com

Share your thoughts

0 Comments found