Verdena

Verdena - Cara Prudenza bass tab

VERDENA-CARA PRUDENZA

abbassare l'accordatura di 1/2 tono

main riff (intro,rit.e guitar solo):

    (x 1)                  (x 3)

|-----------|------------------------------------|

|-----------|------------------------------------|

|--10/3-5-3-|-3--3/5-7-5--5--10----10/3-5-3--3--3|

|-----------|------------------------------------|

(NOTA:l'alternanza e il n.di volte delle parti cambia nell'assolo e nell'ultimo rit.

Basta ascoltare il disco x capire come suonarli.)

Fill 1 (tra intro e verso):

|--------|

|--------|

|-7-7-7--|

|--------|

Verso:

|----------|

|----------|ripetuto x tutta la strofa

|-10---7---|

|-12-0-9-0-|

  x3   x3 (le parti ripetute 3v.vanno suonate molto velocemente, anche qui

           ascoltate l'originale)

Fill 2 (tra verso e rit.)

|--------------------|

|--------------------|

|--------------------|

|--12-----------12---|

Get this song at:  amazon.com sheetmusicplus.com

Share your thoughts

0 Comments found