Verdena

Verdena - Bonne Nouvelle guitar tab

Trascrizione : Matteo Zaggia (webmaster at tabs-database.com.com)

La chitarra è accordata in D-dropped (cioè abbassando il Mi grave fino al Re).

Viene usato un Phaser o un Flanger.

[riff]

|-----------------------------------|

|-----------------------------------|

|------------------9--9--9-9--9--9--|

|-4-4-6-6-7-7-7----11-11-9-11-11-11-| 4 volte

|-4-4-4-4-4-4-4----9--9--9-9--9--9--|

|-4-4-4-4-4-4-4-0--0--0--0-0--0--0--|

|------------------------------|

|------------------------------|

|------------------------------|

|-7-7--7-7--7-7--7-7--7-7------|

|-7-7--7-7--7-7--7-7--7-7------|

|-7-7--7-7--7-7--7-7--7-7-/14\\-|

[end_riff]

|-------------------------------------------------------|

|-------------------------------------------------------|

|-------------------------------------------------------|

|-5-5-7-7-7-5-8--8-10-10-10-8-7--7-9-9-9-7-7--7-9-9-9-7-| 2 volte

|-5-5-5-5-5-5-8--8-8--8--8--8-7--7-7-7-7-7-7--7-7-7-7-7-|

|-5-5-5-5-5-5-8--8-8--8--8--8-7--7-7-7-7-7-7--7-7-7-7-7-|

[verso]

G Bb A

|-------------------------------------------------------|

|-------------------------------------------------------|

|-------------------------------------------------------|

|-5-5-7-7-7-5-8--8-10-10-10-8-7--7-9-9-9-7-7--7-9-9-9-7-|

|-5-5-5-5-5-5-8--8-8--8--8--8-7--7-7-7-7-7-7--7-7-7-7-7-|

|-5-5-5-5-5-5-8--8-8--8--8--8-7--7-7-7-7-7-7--7-7-7-7-7-|

1&3.Ora che... ora... ti senti ok

2.Un'ora in più...un'ora... mi sento ok

G Bb A

1&3.un grido in più e poi tu...non ci sei più

2. affondo giù ebbene, non ci sei più

G Bb A

1&3.se vuoi mi annego ti senti ok

2. e mi comprime e sento che

G Bb A

1&3.un giro intorno non ci sei più... più!

2. va così bene mi sento ok

[end_verso]

G Bb A

|-----------------------------------------------------|

|-----------------------------------------------------|

|-----------------------------------------------------|

|-5-5-7-7-7-5-8--8-10-10-10-8-7--7-9/^\\-7-7--7-9/^\\-7-| 2 volte

|-5-5-5-5-5-5-8--8-8--8--8--8-7--7--------7--7--------|

|-5-5-5-5-5-5-8--8-8--8--8--8-7--7--------7--7--------|

ah

di nuovo [verso]

e poi:

[rit]

|----------------------------------------------------------------|

|----------------------------------------------------------------|

|---------------------------------7-7-7-7-7-7-7-7----------------|

|-3-3-3-3-3-3-3-3-3-3-3-3-3-3-3-3-7-7-7-7-7-7-7-7-5-5-7-7-8-8-8--|

|-3-3-3-3-3-3-3-3-3-3-3-3-3-3-3-3-5-5-5-5-5-5-5-5-5-5-7-7-8-8-8--|

|-3-3-3-3-3-3-3-3-3-3-3-3-3-3-3-3-----------------5-5-7-7-8-8-8--|

Non c'è più limite_________

|----------------------------------------------------------------|

|----------------------------------------------------------------|

|---------------------------------2-2-2-2-2-2-2-2-2-2-2-2-2-5-5--|

|-3-3-3-3-3-3-3-3-3-3-3-3-3-3-3-3-2-2-2-2-2-2-2-2-2-2-2-2-2-5-5--|

|-3-3-3-3-3-3-3-3-3-3-3-3-3-3-3-3-0-0-0-0-0-0-0-0-0-0-0-0-0-3-3--|

|-3-3-3-3-3-3-3-3-3-3-3-3-3-3-3-3--------------------------------|

mi sento scemo e non___ vorrei

|----------------------------------------------------------------|

|----------------------------------------------------------------|

|---------------------------------7-7-7-7-7-7-7-7----------------|

|-3-3-3-3-3-3-3-3-3-3-3-3-3-3-3-3-7-7-7-7-7-7-7-7-5-5-7-7-8-8-8--|

|-3-3-3-3-3-3-3-3-3-3-3-3-3-3-3-3-5-5-5-5-5-5-5-5-5-5-7-7-8-8-8--|

|-3-3-3-3-3-3-3-3-3-3-3-3-3-3-3-3-----------------5-5-7-7-8-8-8--|

doverci rider su________

|-----------------------------------------------------------------|

|-----------------------------------------------------------------|

|---------------------------------2-2-2-2-2-2-2-2-2-2-2-2-2-2-2-2-|

|-3-3-3-3-3-3-3-3-3-3-3-3-3-3-3-3-2-2-2-2-2-2-2-2-2-2-2-2-2-2-2-2-|

|-3-3-3-3-3-3-3-3-3-3-3-3-3-3-3-3-0-0-0-0-0-0-0-0-0-0-0-0-0-0-0-0-|

|-3-3-3-3-3-3-3-3-3-3-3-3-3-3-3-3---------------------------------|

mi sento strano e non___ vorrei

poi [riff] e subito [verso](le prime due volte solo chitarra)

poi:

[assolo]

(il basso fa gli accordi del verso)

|------------------------------------------------------------|

|------------------------------------------------------------|

|-9~~~~-9-7~~~~-7\\5-5---4-2---2/9---9-7~~-7/10-10\\9--7h9-9---|

|------------------------------------------------------------|

|------------------------------------------------------------|

|------------------------------------------------------------|

|------------------------------------------------------------------|

|------------------------------------------------------------------|

|-/12-12-12-14--14-14h15p14p12-10-12-10--9-10-10-10-10\\9-9\\7-7/9-9-|

|------------------------------------------------------------------|

|------------------------------------------------------------------|

|------------------------------------------------------------------|

|---------------------------------------------|

|---------------------------------------------|

|-0-0-0-2~~~-2-2/^~~~-/7-7-5-5---4h5p4~~~~-4\\-|

|---------------------------------------------|

|---------------------------------------------|

|---------------------------------------------|

poi [rit] e [riff] cantando "Ok...ok...ok...ok"Added by tabs-database.com and our distinguished partners

Get this song at:  amazon.com sheetmusicplus.com

Share your thoughts

0 Comments found