Verdena

Verdena - Bevimi guitar tab

BEVIMI

Verdena

From: Verdena demotape, 1997

Tabbed by Denial Guitar (DenialGtr@hotmail.com)

Tune 1/2 step down (Eb Ab Db Gb Bb eb)

Intro

|-----------------|-----------------|

|-----------------|-----------------|

|-----------------|-----------------|

|-----------------|-----------------| (x4)

|-7-7-7-7-7-7-7-7-|-7-7-7-7-7-7-7-7-|

|-5-5-5-5-5-5-5-5-|-5-5-5-5-5-5-5-5-|

x x x x x x x x x x x x x x x x

|-------------|-------------|-------------|-------------|

|-------------|-------------|-------------|-------------|

|-------------|-------------|-------------|-------------|

|-7--7--7--7--|-7--7--7s8-8-|-7--7--7--7--|-7--7--7s8-8-|

|-7--7--7--7--|-7--7--7s8-8-|-7--7--7--7--|-7--7--7s8-8-|

|-5--5--5--5--|-5--5--5s6-6-|-5--5--5--5--|-5--5--5s6-6-|

|--------------|----------------|----------------|-----------------------|

|--------------|----------------|----------------|-----------------------|

|--------------|----------------|----------------|-----------------------|

|-----7------7-|-----7----7s8-8-|-----7--7-7-7-7-|14-14-14-14-14-14-14-14|

|-----7------7-|-----7----7s8-8-|-----7--7-7-7-7-|-0--0--0--0--0--0--0--0|

|-5-5-5--5-5-5-|-5-5-5--5-5s6-6-|-5-5-5--5-5-5-5-|12-12-12-12-12-12-12-12|

x x x x x x x x x

Verse 2 (all x2)

|-----------------|-----------------|-----------------|-----------------|

|-----------------|-----------------|-----------------|-----------------|

|-----------------|-----------------|-----------------|-----------------|

|-----------------|-----------------|-----------------|-----------------|

|-7-7-7-7-7-7-7-7-|-7-7-7-7-7-7-7-7-|-7-7-7-7-7-7-7-7-|-7-7-7-7-7-7-7-7-|

|-5-5-5-5-5-5-5-5-|-5-5-5-5-5-5-5-5-|-5-5-5-5-5-5-5-5-|-5-5-5-5-5-5-5-5-|

x x x x x x x x x x x x x x x x x x x x x x x x x x x x x x x x

Fuori piove e poi via, il culo รจ vergine

Seno fragile, sei tu il crimine

|-----------------|-----------------|-----------------|-----------------|

|-----------------|-----------------|-----------------|-----------------|

|-5-5-5-5-5-5-5-5-|-----------------|-----------------|-----------------|

|-5-5-5-5-5-5-5-5-|-5-5-5-5-5-5-5-5-|-----------------|-----------------|

|-3-3-3-3-3-3-3-3-|-5-5-5-5-5-5-5-5-|-7-7-7-7-7-7-7-7-|-7-7-7-7-7-7-7-7-|

|-----------------|-3-3-3-3-3-3-3-3-|-5-5-5-5-5-5-5-5-|-5-5-5-5-5-5-5-5-|

x x x x x x x x x x x x x x x x

Fuori piove ma so chi sei

Pre-chorus

|-----------------|-----------------|

|-----------------|-----------------|

|-----------------|-----------------|

|-9-9-9-9-9-9-9-9-|-9-9-9-9-9-9-9-9-| (x4)

|-9-9-9-9-9-9-9-9-|-9-9-9-9-9-9-9-9-|

|-7-7-7-7-7-7-7-7-|-7-7-7-7-7-7-7-7-|

x x x x x x x x x x x x x x x x

oh no... oh no...

Chorus

|-----------------|-----------------|

|-----------------|-----------------|

|-2-2-2-2-4-4-4-4-|-5-5-5-5---------|

|-2-2-2-2-4-4-4-4-|-5-5-5-5-3-3-3-3-| (x4)

|-0-0-0-0-2-2-2-2-|-3-3-3-3-3-3-3-3-|

|-----------------|---------1-1-1-1-|

Bevimi

io so chi sei!

Post-chorus

|-----------------|-----------------|-----------------|-----------------------|

|-----------------|-----------------|-----------------|-----------------------|

|-----------------|-----------------|-----------------|-----------------------|

|-----------------|-----------------|---------7-7-7-7-|14-14-14-14-14-14-14-14|

|-7-7-7-7-7-7-7-7-|-7-7-7-7-7-7-7-7-|-7-7-7-7-7-7-7-7-|-----------------------|

|-5-5-5-5-5-5-5-5-|-5-5-5-5-5-5-5-5-|-5-5-5-5-5-5-5-5-|12-12-12-12-12-12-12-12|

x x x x x x x x x x x x x x x x x x x x

Verse 2 (the same as 1 but this lasts half)

Padri vigili, culle e simili

Fuori piove ma so chi sei

[Repeat pre-chorus and chorus]

Solo (on chorus riff x2)

|-------------|----------------|--------------|------------------|

|-------------|----------------|--------------|------------------|

|-----------5-|-7b-5-5-7-7b-7b-|-7b-7b--7-5---|------------------|

|-(7~)--5-7---|----------------|------------7-|-5-7-7--5h7p5h7p5-|

|-------------|----------------|--------------|------------------|

|-------------|----------------|--------------|------------------|

|-------------|----------------|----------------|------------------|

|-------------|----------------|-10-10-10-10-10-|10-8-8-8-8-8s13-13|

|-----------5-|-7b-5-5-7-7b-7b-|----------------|------------------|

|-(7~)--5-7---|----------------|----------------|------------------|

|-------------|----------------|----------------|------------------|

|-------------|----------------|----------------|------------------|

|-----------------------|------------------|----------------|----------------|

|13-12-12-12-12-12-10-10|10-8-8-8h10p8h10p8|-10-10-10-10-10-|8---------------|

|-----------------------|------------------|----------------|--10-10-10-9-9-9|

|-----------------------|------------------|----------------|----------------|

|-----------------------|------------------|----------------|----------------|

|-----------------------|------------------|----------------|----------------|

|------------|------------------|-----------|-----------------|

|------------|------------------|-----------|-----------------|

|-9h10p9-7-9-|-7----------------|-----------|-----------------|

|------------|---10-9-10-12-10~-|-12-10-9-7-|-5--5h7p5h7p5-7~-|

|------------|------------------|-----------|-----------------|

|------------|------------------|-----------|-----------------|

Ending (all x2)

|-------------------------| |---------------------|

|-------------------------| |---------------------|

|-------------------------| |---------------------|

|-11-11-11-11-14-14-14-14-| x3 then |-11-11-11-11-9-9-9-9-|

|--0--0--0--0--0--0--0--0-| |-0--0--0--0--0-0-0-0-|

|-------------------------| |---------------------|

end on:

|------------|

|------------|

|-6----------|

|-7----------|

|-7----------|

|-5----------|

Get this song at:  amazon.com sheetmusicplus.com

Share your thoughts

0 Comments found