Verdena

Verdena - Bambina In Nero guitar tab

Artist: Verdena

Song: Bambina in nero

Album: Verdena

Tabbed by kurt826

Intro+Outro

G|----------------------------------------------

D|7x7x7x7x7x7x7x7x7x7x12x12x12x12x12x12x12x12x12

A|----------------------------------------------

D|----------------------------------------------

Verse

G|-------------------------------------------------------------------------------------------

D|-------------------------------------------------------------------------------------------

A|2-2-2-2-2-2-0-0-0-0-0-5-5-5-5-5-5-2-2-2-2-2-2-7-7-7-7-5-5-5-5------------------5-5-5-5-5-5-

D|-------------------------------------------------------------5-5-5-5-5-5-5-5-7------------5

e tu sei sola

G|-----------------------------------------

D|-----------------------------------------

A|5-5-5-5-5-5-5-5-5-9-9-9-9-9-9-10-10-10-10

D|-----------------------------------------

G|----------------------------------------------

D|7x7x7x7x7x7x7x7x7x7x12x12x12x12x12x12x12x12x12

A|----------------------------------------------

D|----------------------------------------------

G|-------------------------------------------------------------------------------------------

D|-------------------------------------------------------------------------------------------

A|2-2-2-2-2-2-0-0-0-0-0-5-5-5-5-5-5-2-2-2-2-2-2-7-7-7-7-5-5-5-5------------------5-5-5-5-5-5-

D|-------------------------------------------------------------5-5-5-5-5-5-5-5-7------------5

G|-----------------------------------------

D|-----------------------------------------

A|5-5-5-5-5-5-5-5-5-9-9-9-9-9-9-10-10-10-10

D|-----------------------------------------

end...

Get this song at:  amazon.com sheetmusicplus.com

Share your thoughts

0 Comments found