Verdena

Verdena - Balanite guitar tab

BALANITE

Verdena

Album: Il suicidio dei samurai, 2004

Tabbed by Denial Guitar (DenialGtr@hotmail.com)

Tune 1/2 step down (Eb Ab Db Gb Bb eb)

Intro

|-0----------|-0-0---------|-0----------|-------0----|

|-1----------|-0-0-----0-0-|-1----------|---1-----1--|

|-2----------|-2-1-----1-1-|-2----------|-2----------|

|-3----------|-2-2-----2-2-|-2----------|------------| (x4)

|-0----------|-2-2-----2-2-|-0----------|------------|

|------------|-0-0-----0-0-|------------|------------|

F7+ E Am

Verse 1

|-------5-----5|-------4-----4|-------5-----5|-------5-----5|

|--------------|--------------|--------------|--------------|

|---5-----5----|---4-----4----|---5-----5----|--5------5----|

|-3---5-----5--|-2---2-----4--|-7---7-----7--|----7------7--| (x4)

|--------------|--------------|--------------|--------------|

|--------------|--------------|--------------|--------------|

F7+ E Am

Sono steso su un cielo-fan che opportunamente

ho disteso per me, ora commenta...

mi un giorno come non lo hai fatto

mai, io lo spero ancora, ancora

|-0----------|-0-0---------|-0----------|-0-----0----|

|-1----------|-0-0-----0-0-|-1----------|-4b----4b---|

|-2----------|-2-1-----1-1-|-2----------|------------|

|-3----------|-2-2-----2-2-|-2----------|------------| (x2)

|-0----------|-2-2-----2-2-|-0----------|------------|

|------------|-0-0-----0-0-|------------|------------|

ah... ah...

Verse 2 (the same as 1)

Spesso dormo su un cielo-fan, qui le cose sfuggo...

no e non mi spiego perché, se puoi conden...

sa il giorno, con me non lo hai fatto

mai e fa male ancora, eppure...

Chorus

|----------------|-----------------|----------------|----------------|

|----------------|-----------------|----------------|----------------|

|----------------|-----------------|---------4b-----|----------------|

|5-5-5-5-5-5-5-5-|-5-5-5-5-5-5-5-5-|-5-5-5-5----5-5-|-5-5-5-5-5-5-5-5|

|5-5-5-5-5-5-5-5-|-5-5-5-5-5-5-5-5-|-5-5-5-5----5-5-|-5-5-5-5-5-5-5-5|

|3-3-3-3-3-3-3-3-|-3-3-3-3-3-3-3-3-|-3-3-3-3----3-3-|-3-3-3-3-3-3-3-3|

G

non stai per piangere... bah wow! Torna la libidi...

|----------|-----------------------|----------|-----------------------|

|----------|-----------------------|----------|-----------------------|

|-14-------|16-16-16-16-17-17-17-17|-14-------|16-16-16-16-14-14-14-14|

|-----(x8)-|-----------------------|-----(x8)-|-----------------------|

|-12-------|14-14-14-14-15-15-15-15|-12-------|14-14-14-14-12-12-12-12|

|----------|-----------------------|----------|-----------------------|

Dm

ne... prima o poi, lo spero per...

|----------------|-----------------|----------------|----------------|

|----------------|-----------------|----------------|----------------|

|----------------|-----------------|---------4b-----|----------------|

|5-5-5-5-5-5-5-5-|-5-5-5-5-5-5-5-5-|-5-5-5-5----5-5-|-5-5-5-5-5-5-5-5|

|5-5-5-5-5-5-5-5-|-5-5-5-5-5-5-5-5-|-5-5-5-5----5-5-|-5-5-5-5-5-5-5-5|

|3-3-3-3-3-3-3-3-|-3-3-3-3-3-3-3-3-|-3-3-3-3----3-3-|-3-3-3-3-3-3-3-3|

G

te finta comodi... tà ! torna la libidi...

|----------|-----------------------|----------|----------|

|----------|-----------------------|----------|----------|

|-14-------|16-16-16-16-17-17-17-17|-19-------|-17-------|

|-----(x8)-|-----------------------|-----(x8)-|-----(x8)-|

|-12-------|14-14-14-14-15-15-15-15|-17-------|-15-------|

|----------|-----------------------|----------|----------|

Dm

ne... prima o poi!

Verse 3

Ho sonno e dormo un po’ di più, perdo la lucidi...

tà  ma la ritrovo sempre, l’orrore

scenico perde tutta le comici...

tà  ed io mi chiedo perché, davvero...

[Repeat chorus]

Coda

F7+ E Am

Prima o poi (x4)

Get this song at:  amazon.com sheetmusicplus.com

Share your thoughts

0 Comments found