Verdena

Verdena - Apice guitar tab

APICE

Verdena

From: Luna EP, 2004

Tabbed by Denial Guitar (DenialGtr@hotmail.com)

Standard tuning (E A D G B e)

Intro

|-------------|-------------|-------------|-------------|

|-----0-----0-|-----------1-|-----0-----0-|-----------1-|

|-------------|-------------|-------------|-------------|

|---4-----4---|---4---4-----|---4-----4---|-------4-----| (x4)

|-2-----3-----|-3---0-------|-2-----3-----|-3-2-0-------|

|-------------|-------------|-------------|-------------|

Verse 1 (the same as intro but this lasts twice)

Lei non è qua ma parla con me

questa è l'abitudine

C'è un mostro fra noi e non molla mai

controlla ogni cosa

Bridge 1

|-------------|-------------|

|-----0-----0-|-----------1-|

|-------------|-------------|

|---4-----4---|---4---4-----|

|-2-----3-----|-3---0-------|

|-------------|-------------|

Ogni cosa...

|-----------------|-----------------|-----------------|-----------------|

|-0-0-0-0-0-0-0-0-|-0-0-0-0-0-0-0-0-|-0-0-0-0-0-0-0-0-|-0-0-0-0-0-0-0-0-|

|-0-0-0-0-0-0-0-0-|-0-0-0-0-0-0-0-0-|-0-0-0-0-0-0-0-0-|-0-0-0-0-0-0-0-0-|

|-2-2-2-2-2-2-2-2-|-2-2-2-2-2-2-2-2-|-4-4-4-4-4-4-4-4-|-4-4-4-4-4-4-4-4-|

|-3-3-3-3-3-3-3-3-|-3-3-3-3-3-3-3-3-|-5-5-5-5-5-5-5-5-|-5-5-5-5-5-5-5-5-|

|-3-3-3-3-3-3-3-3-|-3-3-3-3-3-3-3-3-|-5-5-5-5-5-5-5-5-|-5-5-5-5-5-5-5-5-|

|-----------------|-----------------|-----------------|-----------------|

|-0-0-0-0-0-0-0-0-|-0-0-0-0-0-0-0-0-|-0---------------|-----------------|

|-0-0-0-0-0-0-0-0-|-0-0-0-0-0-0-0-0-|-0---------------|-----------------|

|-2-2-2-2-2-2-2-2-|-2-2-2-2-2-2-2-2-|-4---------------|-----------------|

|-3-3-3-3-3-3-3-3-|-3-3-3-3-3-3-3-3-|-5---------------|-----------------|

|-3-3-3-3-3-3-3-3-|-3-3-3-3-3-3-3-3-|-5---------------|-----------------|

Verse 2 (the same as intro)

Lei non c'è mai ma dorme con me

porta via ogni colpa

Bridge 2

|-------------|-------------|

|-----0-----0-|-----------1-|

|-------------|-------------|

|---4-----4---|---4---4-----|

|-2-----3-----|-3---0-------|

|-------------|-------------|

Ogni colpa...

|-----------------|-----------------|-----------------|-----------------|

|-0-0-0-0-0-0-0-0-|-0-0-0-0-0-0-0-0-|-0-0-0-0-0-0-0-0-|-0-0-0-0-0-0-0-0-|

|-0-0-0-0-0-0-0-0-|-0-0-0-0-0-0-0-0-|-0-0-0-0-0-0-0-0-|-0-0-0-0-0-0-0-0-|

|-2-2-2-2-2-2-2-2-|-2-2-2-2-2-2-2-2-|-4-4-4-4-4-4-4-4-|-4-4-4-4-4-4-4-4-| (x3)

|-3-3-3-3-3-3-3-3-|-3-3-3-3-3-3-3-3-|-5-5-5-5-5-5-5-5-|-5-5-5-5-5-5-5-5-|

|-3-3-3-3-3-3-3-3-|-3-3-3-3-3-3-3-3-|-5-5-5-5-5-5-5-5-|-5-5-5-5-5-5-5-5-|

|-----------------|-----------------|-----------------|-----------------|

|-0-0-0-0-0-0-0-0-|-0-0-0-0-0-0-0-0-|-0---------------|-----------------|

|-0-0-0-0-0-0-0-0-|-0-0-0-0-0-0-0-0-|-0---------------|-----------------|

|-2-2-2-2-2-2-2-2-|-2-2-2-2-2-2-2-2-|-4---------------|-----------------|

|-3-3-3-3-3-3-3-3-|-3-3-3-3-3-3-3-3-|-5---------------|-----------------|

|-3-3-3-3-3-3-3-3-|-3-3-3-3-3-3-3-3-|-5---------------|-----------------|

Verse 3 (the same as intro)

C'è un demone conversa con me

sfreccia su, fra le nuvole

Get this song at:  amazon.com sheetmusicplus.com

Share your thoughts

0 Comments found