Verdena

Verdena - 17 Tir Nel Cortile guitar tab

17 TIR NEL CORTILE

Verdena

Album: Il suicidio dei samurai, 2004

Tabbed by Denial Guitar (DenialGtr@hotmail.com)

Tune 1/s step down (Eb Ab Db Gb Bb eb)

Intro

|------------|------------|------------|------------|

|--------12--|------------|--------13--|-12---------|

|------------|------------|------------|------------|

|---10-------|------------|---10-------|------------| (x2)

|-0----0-----|------------|-0----0-----|------------|

|------------|------------|------------|------------|

Am Em

Verse 1

|------------|------------|------------|------------|

|--------12--|------------|--------13--|-12---------|

|------------|------------|------------|------------|

|---10-------|------------|---10-------|------------|

|-0----0-----|------------|-0----0-----|------------|

|------------|------------|------------|------------|

Am Em

Ho... visto

|------------|------------|------------|------------|

|--------12--|------------|--------13--|-12---12----|

|------------|------------|------------|---------12-|

|---10-------|------------|---10-------|------------|

|-0----0-----|------------|-0----0-----|------------|

|------------|------------|------------|------------|

Am Em

anche... la neve

|--------------------|-----------------|--------------------|-----------------|

|---------12-------12|------12-------12|---------12-------12|------12-------12|

|---12-------12------|12-------12------|---12-------12------|12-------12------|

|10----10-------10---|---10-------10---|10----10-------10---|---10-------10---| (x2)

|--------------------|-----------------|--------------------|-----------------|

|--------------------|-----------------|--------------------|-----------------|

C Am

sciogliersi... di colpo... ed ora

so... ti amo

Bridge

|----------------|---------------|----------------|----------------|

|-13-13-13-13-12-|---13-13-13-12-|-13-13-13-13-12-|-12-------13----|

|----------------|---------------|----------------|----12-------12-|

|-10-10-10-10-9--|---10-10-10-9--|-10-10-10-10-9--|-------10-------| (x2)

|----------------|---------------|----------------|----------------|

|----------------|---------------|----------------|----------------|

Am Em

Verse 2 (the same as 1)

Ho chiesto fin troppo

ed ora l'ammetto

Mi asciugherò di colpo

e poi sarò contento, di nuovo

Chorus

|----------|----------|----------|----------|--------------------|-----------------|

|-12-------|-12-------|-13-------|-13-------|---------12-------12|------12-------12|

|-----(x8)-|-----(x8)-|-----(x8)-|-----(x8)-|---12-------12------|12-------12------|

|-9--------|-9--------|-10-------|-10-------|10----10-------10---|---10-------10---|

|----------|----------|----------|----------|--------------------|-----------------|

|----------|----------|----------|----------|--------------------|-----------------|

Em F C

Scolpiscono... un

|--------------------|-----------------|--------------------|-----------------|

|---------12-------12|------12-------12|---------12-------12|------12-------12|

|---12-------12------|12-------12------|---12-------12------|12-------12------|

|10----10-------10---|---10-------10---|10----10-------10---|---10-------10---|

|--------------------|-----------------|--------------------|-----------------|

|--------------------|-----------------|--------------------|-----------------|

Am C

cuore... di piombo... ci sono

|----------|----------|--------------------|------------------|

|-12-------|-12-------|---------12-------12|-------12-------12|

|-----(x8)-|-----(x8)-|---12-------12------|-12-------12------|

|-9--------|--9-------|10----10-------10---|---10-------10----|

|----------|----------|--------------------|------------------|

|----------|----------|--------------------|------------------|

Am C

cose... che pesano... pesa...

|--------------------|-----------------|--------------------|-----------------|

|---------12-------12|------12-------12|---------12-------12|------12-------12|

|---12-------12------|12-------12------|---12-------12------|12-------12------|

|10----10-------10---|---10-------10---|10----10-------10---|---10-------10---|

|--------------------|-----------------|--------------------|-----------------|

|--------------------|-----------------|--------------------|-----------------|

Am C

no... pesano... ci sono

|----------|----------|

|-12-------|-12-------|

|-----(x8)-|-----(x8)-|

|-9--------|--9-------|

|----------|----------|

|----------|----------|

Am

cose che schiacciano!

[Repeat intro]

Verse 3

Oh no cresco

eppure mi abbasso

Chilometri in giù

chilometri più giù

[Repeat chorus but the last measure play (---12-14-) instead of (---9-12-)]

Coda

|----------|--------------------|----------|----------|

|-17-------|-17--------15-------|-12-------|-13-------|

|-----(x8)-|-----(x4)------(x4)-|-----(x8)-|-----(x8)-|

|-14-------|-14--------12-------|-9--------|-10-------| (x3)

|----------|--------------------|----------|----------|

|----------|--------------------|----------|----------|

|----------|--------------------|----------|----------|

|-17-------|-17--------15-------|-12-------|-13-------|

|-----(x8)-|-----(x4)------(x4)-|-----(x8)-|-----(x8)-|

|-14-------|-14--------12-------|-9--------|-10-------| (x3)

|----------|--------------------|----------|----------|

|----------|--------------------|----------|----------|

Colpisco...

no... un cuore di piom...

bo... ci sono cose che pesa...

|----------|

|-17~------|

|----------|

|-14~------|

|----------|

|----------|

no!

Get this song at:  amazon.com sheetmusicplus.com

Share your thoughts

0 Comments found