Verdena

Verdena - 1000 Anni Con Elide guitar tab

Artist: Verdena

Song: 1000 anni con elide

Tabbed by kurt826

Tuning: Eb B Gb D Ab eb

Intro after drum:

Eb|-------------------------------------------------|

B |--------9---------9--------7--------6-----6------|

Gb|--------------------------------------0-----0----|

D |----9---------9--------8--------8-------8--------|

Ab|--7---7-----7---7----7---7----7---7--------------|

Eb|-------------------------------------------------|

Eb|-------------------------------------------------------|

B |--------9--------9-/-11-/-9---------7--------6-----6---|

Gb|-------------------/----/----------------------0-----0-|

D |----9-------9----9-/-11-/-9-----8--------8-------8-----|

Ab|--7---7---7---7---------------7---7----7---7-----------|

Eb|-------------------------------------------------------|

Verse:

Eb|--------------------------------------|

B |--------9---------9--------7--------6-|

Gb|--------------------------------------|

D |----9---------9--------8--------8-----|

Ab|--7---7-----7---7----7---7----7---7---|

Eb|--------------------------------------|

Eb|---------------------------7----------|

B |--------9---------9--------7--------6-|

Gb|------------------------------------0-|

D |----9---------9--------8--------8-----|

Ab|--7---7-----7---7----7---7----7---7---|

Eb|--------------------------------------|

Eb|--------------------------------------------------------------------|

B |-------9---9-----------9---9---------------11---11--------------11--|

Gb|--------------------------------------------------------------------|

D |---9-----9---9-----9-----9---9-------11------11---11------11--------|

Ab|-7---7-----------7---7------------10----10-------------10----10-----|

Eb|--------------------------------------------------------------------|

Eb|------------------------------------|

B |--------6-------6-------7-------7---|

Gb|------------------------------------|

D |----8-------8-------8-------8-------|

Ab|--7---7---7---7---7---7---7---7-----|

Eb|------------------------------------|

Eb|---------------------------7----------|

B |--------9---------9--------7--------6-|

Gb|------------------------------------0-|

D |----9---------9--------8--------8-----|

Ab|--7---7-----7---7----7---7----7---7---|

Eb|--------------------------------------|

Eb|---------------------------7----------|

B |--------9---------9--------7--------6-|

Gb|------------------------------------0-|

D |----9---------9--------8--------8-----|

Ab|--7---7-----7---7----7---7----7---7---|

Eb|--------------------------------------|

Eb|--------------------------------------------------------------------|

B |-------9---9-----------9---9---------------11---11--------------11--|

Gb|--------------------------------------------------------------------|

D |---9-----9---9-----9-----9---9-------11------11---11------11--------|

Ab|-7---7-----------7---7------------10----10-------------10----10-----|

Eb|--------------------------------------------------------------------|

Chorus

Eb|-------0---0----|

B |-------0---6----|

Gb|---0---0---0----|

D |--11---9---8----|

Ab|--10---8---7----|

Eb|----------------|

(X2)

Eb|---------------------------------------|

B |---------------------------------------|

Gb|---------------------------------------|

D |--11--13--15--16--15---11--13---8------|

Ab|--10--12--15--15--15---10--12---7------|

Eb|---------------------------------------|

Eb|------------------------------------|

B |------------------------------------|

Gb|--7---9---11--12--11---5---9---0----|

D |--x---x---x----x---x---x---x---8----|

Ab|--5---7---9---10---9---7---7---7----|

Eb|------------------------------------|

verse:

...mi giungi immensa..

Eb|--------------------------------------|

B |--------9---------9--------7--------6-|

Gb|--------------------------------------|

D |----9---------9--------8--------8-----|

Ab|--7---7-----7---7----7---7----7---7---|

Eb|--------------------------------------|

Eb|---------------------------7----------|

B |--------9---------9--------7--------6-|

Gb|------------------------------------0-|

D |----9---------9--------8--------8-----|

Ab|--7---7-----7---7----7---7----7---7---|

Eb|--------------------------------------|

Eb|--------------------------------------------------------------------|

B |-------9---9-----------9---9---------------11---11--------------11--|

Gb|--------------------------------------------------------------------|

D |---9-----9---9-----9-----9---9-------11------11---11------11--------|

Ab|-7---7-----------7---7------------10----10-------------10----10-----|

Eb|--------------------------------------------------------------------|

chorus:

Eb|-------0---0----|

B |-------0---6----|

Gb|---0---0---0----|

D |--11---9---8----|

Ab|--10---8---7----|

Eb|----------------|

(X2)

Eb|---------------------------------------|

B |---------------------------------------|

Gb|---------------------------------------|

D |--11--13--15--16--15---11--13---8------|

Ab|--10--12--15--15--15---10--12---7------|

Eb|---------------------------------------|

Eb|------------------------------------|

B |------------------------------------|

Gb|--7---9---11--12--11---5---9---0----|

D |--x---x---x----x---x---x---x---8----|

Ab|--5---7---9---10---9---7---7---7----|

Eb|------------------------------------|

Guitar 1:

Eb|----------------------------------------|

B |----------------------------------------|

Gb|----------------------------------------|

D |----------------------------------------|

Ab|--7-7-7-7-7-7-7-7-5h7-7-7-7-7-7-7-7-----|

Eb|----------------------------------------|

(X21)

Guitar 2:

Eb|---------|

B |----4^---| (bend)

Gb|---------|

D |---------|

Ab|---------|

Eb|---------|

bridge:

Eb|----------------------------------------------|

B |------9----9---9-/-11----11--12----12----12---|

Gb|----------------------------------------------|

D |----9----9----------------------11----11------|

Ab|--7----7-----7--------10----------------------|

Eb|----------------------------------------------|

Eb|---x----x---0---x----x---x---x---0---|

B |--12---11---6---9---11--12--11---6---|

Gb|---x----x---0---x----x---x---x---0---|

D |--11---11---8---9---11--11--11---8---|

Ab|--10---10---7---7---10--10--10---7---|

Eb|-------------------------------------|

....e quello che...

Eb|---x----x----x----x---0---|

B |---9---11---12---11---6---|

Gb|---x----x----x----x---0---|

D |---9---11---11---11---8---|

Ab|---7---10---10---10---7---|

Eb|--------------------------|

X2

Outro:

Eb|-------------------0---0----------0---0--|

B |-------------------0---6----------0---6--|

Gb|--------------0----0---0-----0----0---0--|

D |--11/13--11--11---13---8----11---13---8--|

Ab|-------------10---12---7----10---12---7--|

Eb|-----------------------------------------|

Eb|--------0---0----------0---0-------0-|

B |--------0---6----------0---6-------6-|

Gb|---0----0---0-----0----0---0-----0---|

D |--11---13---8----11---13---8---8-----|

Ab|--10---12---7----10---12---7-7-------|

Eb|-------------------------------------|

end...

Get this song at:  amazon.com sheetmusicplus.com

Share your thoughts

0 Comments found