Velvet Underground

Velvet Underground - Who Loves The Sun guitar tab

Song: Who Loves the Sun

Album: Loaded

Tab by: Toni Blanco

(Intro)

E-10------5----7-----4----5---

B-10------5----7-----5----5---

G-11--------------------------

D-12--------------------------

A-----------------------------

E-----------------------------

A Ab

Who loves the sun

A Gb

Who cares that it makes plants grow

D Dm

Who cares what it does

A

Since you broke my heart

Who loves the wind

Who cares that it makes breezes

Who cares what it does

Since you broke my heart

A B7

Pa Pa Pa Pa

E7 A

Who loves the sun

A B7

Pa Pa Pa Pa

E7 A

Who loves the sun

A B7

Pa Pa Pa Pa

E7 A

Not everyone

A B7

Pa Pa Pa Pa

D A

Who loves the sun

Who loves the rain

Who cares that it makes flowers

Who cares that it makes showers

Since you broke my heart

Who loves the sun

Who cares that it is shining

Who cares what it does

Since you broke my heart

Sun

E----------------------------------

B----------------------------------

G---4/7---4---5h---7h---5---4------

D------------------------------5---

A----------------------------------

E----------------------------------

Sun

E---------------------------------------

B---------------------------------------

G---3----2p---3h---5----3----2p----------

D---------------------------------3---3----

A---------------------------------------

E---------------------------------------

Sun

E----------------------------------

B----------------------------------

G---4/7---4---5h---7h---5---4------

D------------------------------5---

A----------------------------------

E----------------------------------

E----------------------------------

B----------------------------------

G---4---2----1----2----------------

D----------------------------------

A----------------------------------

E----------------------------------

Pa Pa Pa Pa

Who loves the sun

Pa Pa Pa Pa

Who loves the sun

Pa Pa Pa Pa

Not everyone

Pa Pa Pa Pa

Who loves the sun

Get this song at:  amazon.com sheetmusicplus.com

Share your thoughts

0 Comments found