Velvet Underground

Velvet Underground - Oh! Sweet Nuthin' guitar tab

Song: Oh! Sweet Nuthin'

Album: Loaded

Tab by: Toni Blanco

OH! SWEET NUTHIN' (The Velvet Undeground)

----------------

(Intro)

C C B F C

e:-------------------|---|------------|--------------------------|

B:-------------------|---|------------|--------------------------|

G:--{5}--9b(7)--5----|-5-|----------5-|-9b(7)--5-----5--5h7--5---|

D:-----------------7-|---|-5--6--7----|-----------7-----5----5---|

A:-------------------|---|------------|--------------------------|

E:-------------------|---|------------|--------------------------|

C B F C

e:------------------|--------------------|------------------|

B:----------8-----8-|-6----10b(8)--6-----|------------------|

G:-5---5/9-----9----|-7---------------7--|-5--5h7--5--5--5--|

D:-5----------------|--------------------|----5----5--7--5--|

A:------------------|--------------------|------------------|

E:------------------|--------------------|------------------|

C B

Say a word for Jimmy Brown

F C

He ain't got nothing at all

Not the shirt right off his back

He ain't got nothing at all

And say a word for Ginger Brown

Walks with his head down to the ground

Took the shoes right off his feet

Threw the poor boy right out in the street

And this is what he said

Oh sweet nothing

She ain't got nothing at all

Oh sweet nothing

She ain't got nothing at all

Say a word for Pearly Mae

She can't tell the night from the day

They threw her out in the street

Just like a cat she landed on her feet

And say a word for Joanie Love

She ain't got nothing at all

And everyday she falls in love

And every night she falls

And when she does she says

Oh sweet nothing

You know she ain't got nothing at all

Oh sweet nothing

She ain't got nothing at all

Oh say a word say a word for Jimmy Brown

He ain't got nothing at all, not a thing

Not the shirt the shirt on his back

No he ain't got nothing at all

And say a word for Ginger

He walks with his head to the ground

They took shoes took the shoes from his feet from his feet

Threw the poor boy right out in the street

And then he said

Oh sweet sweet nothing

She ain't got she ain't got she ain't got nothing at all

Sweet sweet sweet sweet nothing

She ain't got nothing at all

Sweet sweet ain't got nothing at all

Sweet sweet nothing got nothing

Oh! sweet nothing

Ain't got nothing at all

Send comments, suggestions, etc to Toni Blanco (veblen@bbs-ce.uab.es)

Get this song at:  amazon.com sheetmusicplus.com

Share your thoughts

0 Comments found