Velvet Underground

Velvet Underground - Foggy Notion guitar tab

Song: Foggy Notion

Album: VU

Tab by: Toni Blanco

Main riff

A D A A D A

e:-------------------------------------------------------------|

B:---8---7--5-------------------------8--7--5------------------|

G:---9---7--5-----5-----7--5-----7/9--------------5-----7--5---|

D:-------------7-----7--------7----------------7-----7--------7|

A:-------------------------------------------------------------|

E:-------------------------------------------------------------|

They repeat the main riff with some variations..

Second guitar play the following chords:

A A7 D D9 G

e: --0- --3-- --2-- --0-- --3--

B: --2- --2-- --3-- --3-- --0--

G: --2- --2-- --2-- --2-- --0--

D: --2- --2-- --0-- --0-- --0--

A: --0- --0-- ----- ----- --2--

E:----- ----- ----- ----- --3--

(Here we go!)

(4/4)

(Intro)

/A /D D9 A/ x4

/A /D D9 A/ x4

A D D9 A

She's over by the corner

A D D9 A

got her hands by her sides

A D D9 A

they hit her harder harder harder

A D D9 A

till they thought she might die

A D D9 A

Well I got a foggy notion, do it again

A D D9 A

Over by the corner, do it again

A D D9 A

I got my calomine lotion baby, do it again

A D D9 A

I got a foggy notion, do it again

(Solo)

/A /D D9 A/ (x4)

/A7/D D9 A/ (x4)

/A /D D9 A/ (x4)

/A7/D D9 A/ (x4)

A D D9 A

She made me do something that I never did before

A D D9 A

I rushed right down to a flower store

A D D9 A

I bought her a boundle a beautiful batch

A D D9 A

Dont't you know something, she sent 'em right back

/ G / D / A / A /

A A A A

Sally Mae, Sally Mae, Sally Mae, Sally Mae

D D A A

Sally Mae, Sally Mae, Sally Mae, Sally Mae

/ G / D / A / A /

Send comments, suggestions, and corrections to Veblen@bbs-ce.uab.es

Get this song at:  amazon.com sheetmusicplus.com

Share your thoughts

0 Comments found