Vanhalen

Vanhalen - Wont Get Fooled Again guitar tab

Won't Get Fooled Again (Intro)

From the album Right Here, Right Now

Transcribed by Alan P. Jones

This intro from Van Halens cover of The Who's song is Eddie's of a part that

on The Who's version was originally played on keyboards, To create the right

feel for the part you should use a fingerstyle technique whereby you

pluck/grab the notes that are in each chord simultaneously. You should also

vary the dynamics as appropriate throughout.

tempo=139

E-|-----------------------------------------------------|-

B4|--5--5--5--5--5--5--3--2--|--3--3--3--3--3--3--2--2--|-

G/|.--2--2--2--2--2--2--2--2-|--2--2--2--2--2--2--2--2--|-

D4|.--2--2--2--2--2--2--2--2-|--3--3--3--3--3--3--3--3--|-

A-||-------------------------|--------------------------|-

E-||-------------------------|--------------------------|-

--------------------------|------------------------||-

--2--2--2--2--2--2--2--2--|--3--3--3--3--3--3-3-3--||-

--2--2--2--2--2--2--2--2--|--2--2--2--2--2--2--2--2.|-

--4--4--4--4--4--4--4--3--|--3--3--3--3--3--3--3--3.|-

--------------------------|------------------------||-

--------------------------|------------------------||-

--------------------------|-------------------------|-

--5--3--2-----5--3--3-----|--5--3--2-----5--3--2----|

--2--2--2-----2--2--3-----|--2--2--2-----2--2--2----|-

--2--------2-----------3--|-----------3-----------3-|-

--------------------------|-------------------------|-

--------------------------|-------------------------|-

--------------------------|--------------------------|-

-----2--3--2-----2--3--2--|-----2--3--2-----2--3--2--|-

--2--2--2--2--2--2--2--2--|--2--2--2--2--2--2--2--2--|-

--2-----------2-----------|--3-----------3-----------|-

--------------------------|--------------------------|-

--------------------------|--------------------------|-

--------------------------|-----5--5--5--5--5--5----||

-----2--3--2-----2--3--2--|-----5--5--5--5--5--5----||

--2--2--2--2--2--2--2--2--|--2--2--2--2--2--2--2---2/|\\(2)--|

--2-----------2-----------|--3---------------------2/|\\(2)--|

--------------------------|------------------------0/|\\(0---|

--------------------------|--------------------------|------|

Get this song at:  amazon.com sheetmusicplus.com

Share your thoughts

0 Comments found