Valley Of Chrome

We The Dying Intro Tabs



More from Valley Of Chrome

Valley Of Chrome Tabs
Valley Of Chrome Lyrics



artist:valley of chrome

song:we the dying

album: love and devotion





intro nga lng pla e2.. [first 00:34 of the song]



intro both guitars/ pakinggan nu nlng mbuti...



[distortion]



e|-------------------------------------------|

b|-------------------------------------------|

g|--x-x-x-9--x-x-x-9-10-x-x-x-9--------------|

d|--x-x-x-9--x-x-x-9-10-x-x-x-9--7-7-7-7-8-9-|(4x)

a|--x-x-x-7--x-x-x-7--8-x-x-x-7--7-7-7-7-8-9-|

e|-------------------------------5-5-5-5-6-7-|



tapos e2 ung lead



e|----------------------------------------------------------------------|

b|-7-8-9b10-7-8-9b10-7-8-9b10-8-7-6b7--5-6-7b8-5-6-7b8-5-6-7b8-6-5-4b5--|

g|----------------------------------------------------------------------|

d|----------------------------------------------------------------------|

a|----------------------------------------------------------------------|

e|----------------------------------------------------------------------|



end~



Added by tabs-database.com and our distinguished partners
Get this song at amazon.com      Ebay     Ringtones Ringtones  


Learn to play: Songwriting, Piano, Harmonica, Guitar

Related Valley Of Chrome Tabs

Twilight tabs
Forever Young tabs
The Art Of Letting Go tabs
We The Dying Intro tabs
Wound tabs
Heroes In A Dying Age tabs
Cast No Shadow tabs
Art Of Letting Go tabs
Love And Devotion tabs


Guitar Tabs









All tabs are property and copyright of their owners. All tabs provided for educational purposes only. Privacy Policy, DMCA