Valley Of Chrome

Twilight Tabs



More from Valley Of Chrome

Valley Of Chrome Tabs
Valley Of Chrome Lyrics

Artist		: Valley Of Chrome

Song : Twilight

Tabbed by : pritwi (Perry Alvin L. Barongan)

Tuning : 1 1/2 step down

Legend :

. palm mute / slide up

~ let ring slide down

b bend r release bend





0:06

|----------------------------------------------------------------------------------------|

|----------------------------------------------------------------------------------------|

|---------4~~~~--------5~~~~-----5---6~~~~-----------------------------------------------|

|----2---2~~~~-----2---2~~~~-----2---2~~~~-------------2--3-------------2----------------|

|----2---2~~~~-----2---3~~~~-----3---4~~~~--------3----------2----------2----------------|

|----0---0~~~~-----0---0~~~~-----0---0~~~~------------------------3--2--0----------------|

(seems to be 2 guitars, but what the heck...) . .



0:14

|-----------------------------------------------------------------------------------------|

|-----------------------------------------------------------------------------------------|

|---------4~~~~---------5~~~~-----5---6~~~~-----------------------------------------------|

|---------2~~~~-----2---2~~~~-----2---2~~~~-------------2--3------------------------------|

|---------2~~~~-----2---3~~~~-----3---4~~~~--------3----------2---------------------------|

|---------0~~~~-----0---0~~~~-----0---0~~~~------------------------3--2-------------------|

|0:16 . . . . .

|-----------------------12121212121212121212121212121212----------------------------------|

|------------------------(fade in)--------------------------------------------------------|

|-----------------------------------------------------------------------------------------|

|-----------------------------------------------------------------------------------------|

|-----------------------------------------------------------------------------------------|

|-----------------------------------------------------------------------------------------|

|0:18

|----------------------------------------------------------------------------------------|

|----------------------------------------------------------------------------------------|

|----------------------------------------------------------------------------------------|

|--------------------------------------/---------------2--3------------------------------|

|--------------------------------------/----------3----------2---------------------------|

|--------------------------------------/--------------------------3--2-------------------|

. .



0:21

|-----------------------------------------------------------------------------------------|

|-----------------------------------------------------------------------------------------|

|--4---------------4---5---------------5---6---------------6------------------------------|

|--2---------------2---2---------------2---2---------------2--------2--3------------------|

|--2---------------2---3---------------3---4---------------4---3----------2---------------|

|--0---0---0-0-0---0---0---0---0-0-0---0---0---0---0-0-0---0-------------------3--2-------|

| . . . . . . . . . . . . . .

|-----------------------------------------------------------------------------------------|

|-----------------------------------------------------------------------------------------|

|--9~~~~~~~~~~----11-12-9~~~~~~~~~~---11-12-9~~~~~~--11-12-14b16--14--11--12--11--7-------|

|-----------------------------------------------------------------------------------------|

|-----------------------------------------------------------------------------------------|

|-----------------------------------------------------------------------------------------|





|-----------------------------------------------------------------------------------------|

|-----------------------------------------------------------------------------------------|

|--4---------------4---5---------------5---6---------------6------------------------------|

|--2---------------2---2---------------2---2---------------2--------2--3-------------2~~~-|

|--2---------------2---3---------------3---4---------------4---3----------2----------2~~~-|

|--0---0---0-0-0---0---0---0---0-0-0---0---0---0---0-0-0---0-------------------3--2--0~~~-|

|

|-----------------------------------------------------------------------------------------|

|-----------------------------------------------------------------------------------------|

|--9~~~~~~~~------11-12-9~~~~~~~~-----11-12-9~~~~~---11-12-14b16-r14--11--12--11--7--9----|

|-----------------------------------------------------------------------------------------|

|-----------------------------------------------------------------------------------------|

|-----------------------------------------------------------------------------------------|





0:45

|----------------------------------------------------------------------------------------|

|----------------------------------------------------------------------------------------|

|----------------------------------------------------------------------------------------|

|-----5----5-5------7----7-7-------------------------------------------------------------|

|-----5----5-5------7----7-7-------------------------------------------------------------|

|-----3----3-3------5----5-5-----3--2----------------------------------------------------|

. . . .



|-----------------------------------------------------------------------------------------|

|-----------------------------------------------------------------------------------------|

|--4---------------4---4---------------4---5---------------5---5---------------5----------|

|--2---------------2---2---------------2---2---------------2---2---------------2----------|

|--2---------------2---2---------------2---3---------------3---3---------------3----------|

|--0---0---0-0-0---0---0---0---0-0-0---0---0---0---0-0-0---0---0---0---0-0-0---0----------|

| . . . . . . . . . . . . . . . .

|-----------------------------------------------------------------------------------------|

|-----------------------------------------------------------------------------------------|

|--9~~~~~~~~------11-12-9~~~~~~~~-----11-12-9~~~~~~--11-12-14b16-r14--11--12--11--7-------|

|-----------------------------------------------------------------------------------------|

|-----------------------------------------------------------------------------------------|

|-----------------------------------------------------------------------------------------|





|-----------------------------------------------------------------------------------------|

|-----------------------------------------------------------------------------------------|

|--6---------------6---6---------------6--------------------------------------------------|

|--2---------------2---2---------------2--5---5-5-----7----7-7------5--4--2---------------|

|--4---------------4---4---------------4--5---5-5-----7----7-7------5--4--2---------------|

|--0---0---0-0-0---0---0---0---0-0-0---0--3---3-3-----5----5-5------3--2--0---------------|

| . . . . . . . . . . . .

|-----------------------------------------------------------------------------------------|

|-----------------------------------------------------------------------------------------|

|--9~~~~~~~-------11-12-9~~~~~~~----------------------------------------------------------|

|-------------------------------------------------------------------5--4--2---------------|

|-------------------------------------------------------------------5--4--2---------------|

|-------------------------------------------------------------------3--2--0---------------|

. . .

Get this song at amazon.com      Ebay     Ringtones Ringtones  


Learn to play: Songwriting, Piano, Harmonica, Guitar

Related Valley Of Chrome Tabs

Twilight tabs
Forever Young tabs
The Art Of Letting Go tabs
We The Dying Intro tabs
Wound tabs
Heroes In A Dying Age tabs
Cast No Shadow tabs
Art Of Letting Go tabs
Love And Devotion tabs


Guitar Tabs









All tabs are property and copyright of their owners. All tabs provided for educational purposes only. Privacy Policy, DMCA