Valley Of Chrome

The Art Of Letting Go Tabs



More from Valley Of Chrome

Valley Of Chrome Tabs
Valley Of Chrome Lyrics



The Art of Letting Go

Artist: Valley of Chrome

Tabbed by: Stephen Laiz

Email: webmaster at tabs-database.com.com



This is my first tab, the first part I got from my friend tapos kinapa

ko na lang ung iba, paki rate na lang po!



Tuning:

e

B

G

D

A

D(Drop Low E to D)



Here's how it goes...



Intro Pre-Verse(7x) and Chorus(4x)

|---x-x-x-----||-x--x-x-x--x--x-x-x-x-x-x-x-x--|

|---x-x-x-----||-x--x-x-x--x--x-x-x-x-x-x-x-x--|

|---x-x-x-----||-x--x-x-x--x--x-x-x-x-x-x-x-x--|

|--10-9-7-----||-7-10-0-9-10--0-0-3-3s5-5s7-7--|

|--10-9-7-----||-7-10-0-9-10--0-0-3-3s5-5s7-7--|

|--10-9-7-----||-7-10-0-9-10--0-0-3-3s5-5s7-7--|



Verse & refrain(palm mute) Pre-Chorus

|--x----x-----| |-x---x---x--------------------|

|--x----x-----| |-x---x---x--------------------|

|--x----x-----| |-x---x---x--------------------|

|--7----5-----| |-3---5---7--------------------|

|--7----5-----| |-3---5---7--------------------|

|--7----5-----| |-3---5---7--------------------|





(Rhythm Guitar for the solo part is the same from the Intro

and Chorus so you just continually play it from the Chorus)



Bridge

|-----------------------------------------|

|-----------------------------------------|

|-----------------------------------------|

|-----------------------------------------|6x

|--2-2-4h5p4-0--2-2-4h5p4-----------------|

|-----------------------------------------|







Outro:

|-----------------------------------------|

|-----------------------------------------|

|----4-4-6h7p7-2-4-4-6h7p7---------------|up to end

|-----------------------------------------|

|-----------------------------------------|

|-----------------------------------------|Added by tabs-database.com and our distinguished partners
Get this song at amazon.com      Ebay     Ringtones Ringtones  


Learn to play: Songwriting, Piano, Harmonica, Guitar

Related Valley Of Chrome Tabs

Twilight tabs
Forever Young tabs
The Art Of Letting Go tabs
We The Dying Intro tabs
Wound tabs
Heroes In A Dying Age tabs
Cast No Shadow tabs
Art Of Letting Go tabs
Love And Devotion tabs


Guitar Tabs









All tabs are property and copyright of their owners. All tabs provided for educational purposes only. Privacy Policy, DMCA