Valley Of Chrome

Heroes In A Dying Age Tabs



More from Valley Of Chrome

Valley Of Chrome Tabs
Valley Of Chrome Lyrics



Song:Conquering Hades

Album:Love and Devotion

Artist:Valley of Chrome

Date:May,2006

Tabber:Ryan Manongdo

16 years old,Montalban Rizal

webmaster at tabs-database.com.com(Friendster&YM)

09229015724(Sun Cell)



Notes:Tune your gtr.correctly,don't be too stupid,listen to the song well

and follow the method.For any comments,questions,or suggestions,You

can Post a Comment,PM,Email,Frndster Message or you can Text me!!!

Peace V and ROCK ON m/,



Gtr.Legends:

~ - LET IT RING

x - DEAD STRING

. - PALM MUTING

b - BEND



Gtr.Tuning:Standard(Normal)Tuning



e|------------|

B|------------|

G|-6~----7~---|

D|-6~-xx-7~---|

A|-4~-xx-5~---|

E|----xx------|



e|-------------------------- ------------------|

B|-------------------------- ------------------|

G|-------------------------- ------------------|

D|-----------4-2------------ ------------------|

A|-444-5-2-4------4-5-4-2--- -444-5-2-4--------|

E|-------------------------- -----------5-7-4--|



e|-------------------------- --------------------------|

B|-------------------------- -----------5-4------------|

G|-------------------------- ---------------5-4-3------|

D|-------------------------- ----------------------6b--|

A|-----------4-2------------ -444-5-2-4----------------|

E|-444-5-2-4------4-5-4-2--- --------------------------|



Gtr.1

e|----------------------|

B|----------------------|

G|-6~--4~--6~--9~-------|

D|-6~--4~--6~--9~--9~---|

A|-4~--2~--4~--7~--9~---|

E|-----------------7~---|



Gtr.2

e|-----------------------------------------------------------------|

B|-2-5-7-5-4-5----5-4-5-7-5-4-5---2-4-5-7-5-4-5-9-7-5-7-5-4-5-7----|

G|-------------4---------------------------------------------------|

D|-----------------------------------------------------------------|

A|-----------------------------------------------------------------|

E|-----------------------------------------------------------------|



e|-9-12-14-12-11-12-7-12-11-12--14-12-11-12--9-11-12-14-12-11-12--15-14-12-14------|

B|---------------------------------------------------------------------------------|

G|---------------------------------------------------------------------------------|

D|---------------------------------------------------------------------------------|

A|---------------------------------------------------------------------------------|

E|---------------------------------------------------------------------------------|



e|----------------- ---------|

B|----------------- ---------|

G|----------------- -7--6----|

D|-7-7777--9-9999-- -7--6----|

A|-7-7777--9-9999-- -5--4----|

E|-5-5555--7-7777-- ---------|

.... ....



Gtr.1

e|---------------------------------------------|

B|-14-------14-------14-------14-------14/16---|

G|----14-14----14-14----14-14----14-14---------|

D|---------------------------------------------|

A|---------------------------------------------|

E|---------------------------------------------|



e|----------------------------------------------------------|

B|-14-------14-------14-------14-------11h12-11-9-11-9-7-9--|

G|----14-14----14-14----14-14----14-14----------------------|

D|----------------------------------------------------------|

A|----------------------------------------------------------|

E|----------------------------------------------------------|



e|---------------------------------------------|

B|-14-------14-------14-------14-------14/16---|

G|----14-14----14-14----14-14----14-14---------|

D|---------------------------------------------|

A|---------------------------------------------|

E|---------------------------------------------|



e|-------------------------------------11h13-12-11-12---|

B|-14-------14-------14-------14------------------------|

G|----14-14----14-14----14-14----14-14------------------|

D|------------------------------------------------------|

A|------------------------------------------------------|

E|------------------------------------------------------|



Gtr.2

e|------------|

B|------------|

G|-6~-4---6~--|

D|-6~-4-4-6~--|

A|-4~-2-4-4~--|

E|------2-----|





e|------------------------|

B|------------------------|

G|------------------------|

D|-6666-4444-9999-9999----|

A|-4444-2222-7777-9999----|

E|----------------7777----|



Outro:

e|----------------------------------|

B|----------------------------------|

G|----------------------------------|

D|------------xxx-------------------|

A|-444-5-2-4--xxx--444-5-2-4--------|

E|------------xxx------------5-7-4--|



e|------------------------------------------|

B|--------------------------5-4-------------|

G|------------------------------5-4-3-------|

D|------------xxx---------------------6b----|

A|-444-5-2-4--xxx-444-5-2-4-----------------|

E|------------xxx---------------------------|



e|--------------|

B|--------------|

G|---------6~---|

D|---------6~---|

A|-444-5-2-4~---|

E|--------------|



End...Added by tabs-database.com and our distinguished partners
Get this song at amazon.com      Ebay     Ringtones Ringtones  


Learn to play: Songwriting, Piano, Harmonica, Guitar

Related Valley Of Chrome Tabs

Twilight tabs
Forever Young tabs
The Art Of Letting Go tabs
We The Dying Intro tabs
Wound tabs
Heroes In A Dying Age tabs
Cast No Shadow tabs
Art Of Letting Go tabs
Love And Devotion tabs


Guitar Tabs









All tabs are property and copyright of their owners. All tabs provided for educational purposes only. Privacy Policy, DMCA