Valley Of Chrome

Cast No Shadow Tabs



More from Valley Of Chrome

Valley Of Chrome Tabs
Valley Of Chrome Lyrics



Song:Cast No Shadow

Album:Anthem for the Sell Out Youth

Artist:Valley of Chrome

Date:June,2006

Tabber:Ryan Manongdo

16/m/Montalban Rizal

webmaster at tabs-database.com.com(Friendster&YM)

09229015724(Sun Cell)



Notes:My tab is best for guitar 1.I have no time to tab for gtr.2 because I'm

busy.Listen to the song well,tune your gtr.properly,don't be too stupid and

follow the method.For your any comments,questions or suggestion;just post a

comment,pm,e-mail,friendster mess.or you can text me.Please rate for the accu-

racy of my tab.Peace V and \m/; !!!



Gtr.Legends:

x - DEAD STRING

/ - SLIDE

b - BEND

~ - LET IT RING

. - PALM MUTING

p - PULL-OFF

h - HAMMER-ON



Gtr.Tuning:Standard(Normal Tuning)



Intro:

Gtr.1

e|------------------------------|

B|------------------------------|

G|------------------------999---| 8x

D|-11111111111111--777777-xxx---|

A|-11111111111111--777777-777---|

E|--9-9-9-9-9-9-9--555555-------|



Gtr.2 Enters:

e|-----------------------------|

B|-----------------------------|

G|-----------------------------| 4x

D|-----------------------------|

A|-4-6-7-9-6-7---2-4-6-7-6-2---|

E|-----------------------------|



Gtr.1:

e|----------|

B|----------|

G|----------| 2x

D|-2~--4~---|

A|-2~--2~---|

E|-0~-------|



Gtr.2:

e|------------------------------------------------------|

B|------------------------------------------------------|

G|-2-4-6-7-6-4-----------------2-4-6-7-6-4--------------|

D|--------------6-7-9-11-9-6----------------6-7-9-11~---|

A|------------------------------------------------------|

E|------------------------------------------------------|



Gtr.1:

e|-----------------------------|

B|-----------------------------|

G|-----------------------------| 4x

D|-11111111111111--777777777---|

A|-11111111111111--777777777---|

E|--9-9-9-9-9-9-9--555555555---|



Gtr.2:

e|-----------------------------------|

B|---------9-9-7b-----------5-4-1b---|

G|-6p4-6p4---------6p4-6p4-----------| 4x

D|-----------------------------------| Then

A|-----------------------------------|

E|-----------------------------------|

. . . .



Gtr.1

e|-------------------------------------------------|

B|-------------------------------------------------|

G|-------------------------------------------------|

D|-11~----7~---11~----7~---11---7~---11~--7~--6~---|

A|-11~----7~---11~----7~---11---7~---11~--7~--4~---|

E|--9~----5~----9~----5~----9---5~----9~--5~-------|

.

Gtr.2

e|---------------------------- -----------------|

B|---------------------------- 4x -----------------|

G|---------------------------- Then -----------------|

D|---------------------------- ------------6~---|

A|-4-6-7-9-6-7---2-4-6-7-6-2-- -2-4-6-7-6--4~---|

E|---------------------------- -----------------|



e|-xx--xx--xx------------|

B|-xx--xx--xx-0-2-5-5b---|

G|-xx--xx--xx------------| then

D|-----------------------|

A|-----------------------|

E|-----------------------|

.



Gtr.1: Gtr.2:

e|--------- -------------|

B|--------- --10b--12b---|

G|--------- -------------|

D|-7~--9~-- -------------|

A|-7~--9~-- -------------|

E|-5~--7~-- -------------|



e|-------------------------------------------------------------|

B|-------------------------------------------------------------|

G|-------------------------------------------------------------|

D|-6-66-66-66-66-66-66-66/7-9---6-66-66-66-66-66-66---7~--9~---|

A|-4-44-44-44-44-44-44-44/5-7---4-44-44-44-44-44-44---7~--9~---|

E|----------------------------------------------------5~--7~---|

. .. .. .. .. .. .. .. . .. .. .. .. .. ..



Verse:

e|-------------------------------------------------------------|

B|-------------------------------------------------------------|

G|-------------------------------------------------------------| 2x

D|-6-66-66-66-66-66-66-66/7-9---6-66-66-66-66-66-66---7~--9~---|

A|-4-44-44-44-44-44-44-44/5-7---4-44-44-44-44-44-44---7~--9~---|

E|----------------------------------------------------5~--7~---|

. .. .. .. .. .. .. .. . .. .. .. .. .. ..



Chorus 1:

Gtr.1

e|-------------------------------------|

B|-------------------------------------|

G|-------------------------------------|

D|-4~---7~--11~--9~--7~--4~---7777-9---|

A|-4~---7~--11~--9~--7~--4~---7777-9---|

E|-2~---5~---9~--7~--5~--2~---5555-7---|

.... .



Gtr.2 Enters:

e|-------------------|

B|-------------------|

G|--6~----8~----9~---|

D|--x-----x-----x----|

A|--4~----6~----7~---|

E|-------------------|



Repeat Verse:



Repeat Chorus 1:



Chorus 2:

Gtr.1:

e|------------------|

B|------------------|

G|------------------| 2x

D|-7~--7~--2~--4~---| Then

A|-7~--7~--2~--2~---|

E|-9~--5~--0~-------|



Gtr.2:

e|---------------------------|

B|---------------------------|

G|-9h11-9--8-8h9-8-----------| 4x

D|------------------9-9h11---|

A|---------------------------|

E|---------------------------|



e|----------------------|

B|-8h9-8-7--7h8---------|

G|--------------7-7h9---| 4x

D|----------------------|

A|----------------------|

E|----------------------|



Gtr.Solo 1:

Gtr.1:

e|-----------------------------------------------------------------|

B|-----------------------------------------------------------------|

G|-----------------------------------------------------------------| 2x

D|-6-66-66-66-66--7-77-77-77-77--2-22-22-22-22-22--4-44-44-44-44---|

A|-4-44-44-44-44--7-77-77-77-77--2-22-22-22-22-22--2-22-22-22-22---|

E|----------------5-55-55-55-55--0-00-00-00-00-00------------------|

. .. .. .. .. . .. .. .. .. . .. .. .. .. .. . .. .. .. ..



Gtr.2:Not Finish



Repeat Chorus 1:



Repeat Chorus 2:



Arrange the song structure by your self....



Last Chord:

e|---------------------------|

B|---------------------------|

G|-9h11-9--8-8h9-8-----------|

D|------------------9-9h11---|

A|---------------------------|

E|---------------------------|



I would like to greet My friends in our school NSDAPS San Mateo Rizal,My

friends in Montalban,My Band Mates,My Friends in YM and Friendster and my

luv;******!!You know who you are;-p



Padre Garrote: Extra:



Dino Testa:Vocals Andrei Frondoso:Xylophone,Triangles,Flute and Tamborine

Edy Capistrano:Gtr.1 Mike Alvez:Sub-Guitar

Jiro Uezono:Gtr.2

Ryan Manongdo:Bass Ei,This is my new secret alternate e-mail add

Aeroll Cayetano:Drums webmaster at tabs-database.com.com

Added by tabs-database.com and our distinguished partners
Get this song at amazon.com      Ebay     Ringtones Ringtones  


Learn to play: Songwriting, Piano, Harmonica, Guitar

Related Valley Of Chrome Tabs

Twilight tabs
Forever Young tabs
The Art Of Letting Go tabs
We The Dying Intro tabs
Wound tabs
Heroes In A Dying Age tabs
Cast No Shadow tabs
Art Of Letting Go tabs
Love And Devotion tabs


Guitar Tabs









All tabs are property and copyright of their owners. All tabs provided for educational purposes only. Privacy Policy, DMCA