Valley Of Chrome

Art Of Letting Go Tabs



More from Valley Of Chrome

Valley Of Chrome Tabs
Valley Of Chrome Lyrics

Song         : The Art Of Letting Go

Band : Valley Of Chrome

Tabbed By : Brandon Philip Llapitan

E-add/Cp No. : webmaster at tabs-database.com.com/09064856396

Tuning : Flat Tuning





“I used fifth chords and the solos are based from A minor pentatonic scale and B minor pentatonic scale”



[Part I (00:00-0:08)] Guitar 1



Guitar 1

eb------------------------------------------------------------------------|

bb------------------------------------------------------------------------|

gb--------------5--4/5----------------------5--4/5------------------------|

db--------------5--5~~----------------------5--5~~------------------------|

ab-10--9--7~--0---------x-3~--x-5~--x-7~--0--------x-3~--x--5~--10--9--7~-|

Eb--8--7--5~------------x-1~--x-3~--x-5~-----------x-1~--x--3~---8--7--5~-|

. . . . . .



[Part II (00:00-0:30)] Guitar 1&2



Guitar 1

eb------------------------------------------------------------- ---------------------------|

bb------------------------------------------------------------- ---------------------------|

gb---5--4/5----------------------5--4/5------------------------then---5-4/5-------------------|

db---5--5~~----------------------5--5~~------------------------ ---5-5~~-------------------|

ab-0---------x-3~--x-5~--x-7~--0--------x-3~--x--5~--10--9--7~- -0-------x-3~--x-5~--x-7~--|

Eb-----------x-1~--x-3~--x-5~-----------x-1~--x--3~---8--7--5~- ---------x-1~--x-3~--x-5~--|

. . . . . |-----------3x--------------|



Then

eb---------------------------------|

bb---------------------------------|

gb---5--4/5------------------------|

db---5--5~~------------------------|

ab-0--------x-3~--x--5~--10--9--7~-|

Eb----------x-1~--x--3~---8--7--5~-|





Guitar 2

eb--------------------------------------------------------------------------------------------------------|

bb--------------------------------------------------------------------------------------------------------|

gb-/9-------12b14/14\12--12b14*-12b14*-12b14*-12b14*-----------------------------5-7b9r7p5-7-5~--5p4------|

db----7~-\-------------------------------------------12-10--12h14p12--10------/7---------------------5----|

ab-----------------------------------------------------------------------12~---------------------------7~-|

Eb--------------------------------------------------------------------------------------------------------|

.

Guitar 2

eb-----------------------12-15b17--------12-15b17--------17-20b22--22-22-22-22----20p17-----------------------|

bb-----------13-15b17-15--------------13--------------17--------------------------------20-20b22----17-20p17--|

gb--------14-----------------------14--------------17--------------------------------------------19-----------|

db-----14-----------------------------------------------------------------------------------------------------|

ab-/12--------------------------------------------------------------------------------------------------------|

Eb------------------------------------------------------------------------------------------------------------|

|------------------------Sweep Picking-----------------------| |-Control the-------------------------------|

|---string----------------------------------|



Guitar 2

eb-------------------------------------------------------------------------------|

bb----17-20p17-------------------------------------------------------------------|

gb-19----------19-17-19p17----17~------------------------------------------------|

db-------------------------19-----19-17-19p17------------------------------------|

ab--------------------------------------------19-17-15h17-15~----14-14/15\14\12~-|

Eb-------------------------------------------------------------------------------|



[Part III (00:30-0:58)] Guitar 1&2(Listen to the song for the strumming)



Guitar 1 :(00:30-0:58)

Guitar 2 :(00:30-0:51)

eb---------------- -----------|

bb---------------- -----------|

gb----5~----------then-----------|

db----5~---------- -----------|

ab-7-----5-----3/- -7-----5---|

Eb-5-----3-----1/- -5-----3---|

|------3x----------------------|



Guitar 2: (00:51:58)

eb-------------------------------------------------------------------------------------|

bb-------------------------------------------------------------------------------------|

gb----------------------------------------12~------------------------------------------|

db-14-10----14-10----14-10--14-10----14-10------12-9----12-9----12-9--12-9------7-4~---|

db-------12-------12--------------12-----------------10------10------------10----------|

ab-------------------------------------------------------------------------------------|

. . . . . . . . . . . . . . . . . . . . . . . .



[Part IV (00:59-01:06)] Guitar 1&2



Guitar 1

eb------------------------------------|-----|

bb------------------------------------| |

gb-----------------------------2p0-2~-| |

db------------------------------------| |

ab-3~--x-5~--x-7~---------------------| |

Eb-1~--x-3~--x-5~-5-5-5--5-5-5--------| |

. . . . . . |

Guitar 2 |--2x

eb------------------------------------| |

bb------------------------------------| |

gb-----------------------------5p4-5~-| |

db------------------------------------| |

ab-3~--x-5~--x-7~---------------------| |

Eb-1~--x-3~--x-5~-5-5-5--5-5-5--------|-----|

. . . . . .



[Part V (01:06-01:10)] Guitar 1&2



Guitar 1

eb-----------------------------------------|-----|

bb-----------------------------------------| |

gb-----------------5p4-5~------------------| |

db----------x-5~---------------------------| |

ab-3~--x-5~-x-3~----------3-3-3--5-(pause)-| |

Eb-1~--x-3~---------------1-1-1--3---------| |

Guitar 2 |

eb-----------------------------------------| |

bb-----------------5p3-5~------------------| |

gb-----------------------------------------| |

db----------x-5~---------------------------| |

ab-3~--x-5~-x-3~----------3-3-3--5-(pause)-| |

Eb-1~--x-3~---------------1-1-1--3---------|-----|



[Part VI (01:11-01:01:26)] Guitar 1&2



eb----------- ---------------------------- ---------------------------------|

bb----------- ---------------------------- ---------------------------------|

gb-----------then---5--4/5-------------------then---5-4/5-------------------------|

db----------- ---5--5~~------------------- ---5-5~~-------------------------|

ab-10--9--7~- -0---------x-3~--x-5~--x-7~- -0--------x-3~--x-5~---10--9--7~-|

Eb--8--7--5~- -----------x-1~--x-3~--x-5~- ----------x-1~--x-3~----8--7--5~-|

. . . . .

|----------3x--------------|



Repeat Part IV

Repeat Part V





[Part VII (02:07-02:21)] Guitar 1&2



eb----------- ---------------------------- ---------------------|

bb----------- ---------------------------- ---------------------|

gb-----------then---5--4/5-------------------then---5-4/5-------------|

db----------- ---5--5~~------------------- ---5-5~~-------------|

ab-10--9--7~- -0---------x-3~--x-5~--x-7~- -0--------x-3~--x-5~-|

Eb--8--7--5~- -----------x-1~--x-3~--x-5~- ----------x-1~--x-3~-|

. . .

|----------3x--------------|



[Part VIII (02:22-02:36)] Guitar 1&2



Guitar 1(Listen to the song for the strumming)

eb--------------- ----|

bb--------------- ----|

gb---------------(4x)then----|

db--------------- ----|

ab-9-----5-----7- -9~-|

Eb-7-----3-----5- -7~-|



Guitar 2

eb------------------------------------------------------------------------15b17-15b17~~-|

bb-/10~~-10b12r10-10b12—10h12p10--------------------------------------------------------|

gb-------------------------------11-9-11p9---7~------7*------------7*-------------------|

db-----------------------------------------9-----7-9--------7h9*-7----------------------|

ab------------------------------------------------------7-9-----------------------------|

Eb--------------------------------------------------------------------------------------|

. . . . .



eb-14h15p14---------------------------------------------------------------------------------------------------------|

bb----------17-15-17p15----15-18—17b19-15-17------------------------------------------------------------------------|

gb----------------------16-------------------16~---14h16-14---------14b16-14h16p14----------------------------------|

db----------------------------------------------------------14-12~-----------------16-12-14p12----12-14-12----------|

ab---------------------------------------------------------------------------------------------14-----------14-14~--|

Eb------------------------------------------------------------------------------------------------------------------|

|---------Sounds like blues scale --------------------------------------------------------------------------------|



[Part IX (02:36-02:44)] Guitar 1



Guitar 1

eb---------------------|

bb---------------------|

gb---------------------|2x

db---------------------|

ab---------------------|

Eb-7~-10-9~--7-10-9—5~-|



[Part X (02:45-02:53)] Guitar 1&2



Guitar 1

eb---------------------|-----|

bb---------------------| |

gb---------------------| |

db---------------------| |

ab---------------------| |

Eb-7-10-9~---7-10-9-5~-| |

Guitar 2 |2x

eb---------------------| |

bb---------------------| |

gb---------------------| |

db---------------------| |

ab-5--9-7~---5--9-7-4~-| |

Eb---------------------|-----|





[Part XI (02:54-03:47)] Guitar 1&2



Guitar 1(Listen to the song for the strumming)

eb---------------------------- ----|

bb---------------------------- ----|

gb----------------------------(7x)then----|

db----------------------------| ----|

ab-9-----4-----5-----12-----7-| -9~-|

Eb-7-----2-----3-----10-----5-| -7~-|

. . . . .



Guitar 2

eb------------------------| ----|

bb------------------------| ----|

gb-4--7--6~---4--7--6--2~-(14x)then-4~-|

db------------------------| ----|

ab------------------------| ----|

Eb------------------------| ----|





Guitar Legend :



. = Palm Mute

/ = Slide Up

\ = Slide Down

h = Hammer

p = Pull

x = Muted Note

~ = Let Ring/Vibrato

r = Release

b = Bend

* = Pinched Harmonics





Sweep Picking & Pinched Harmonics Explanation :



Sweep Picking = Economic pick movements(moved downward & upward directions).

Pinched Harmonics = Picking the string with the side edge of the plectrum(pick).Added by tabs-database.com and our distinguished partners
Get this song at amazon.com      Ebay     Ringtones Ringtones  


Learn to play: Songwriting, Piano, Harmonica, Guitar

Related Valley Of Chrome Tabs

Twilight tabs
Forever Young tabs
The Art Of Letting Go tabs
We The Dying Intro tabs
Wound tabs
Heroes In A Dying Age tabs
Cast No Shadow tabs
Art Of Letting Go tabs
Love And Devotion tabs


Guitar Tabs









All tabs are property and copyright of their owners. All tabs provided for educational purposes only. Privacy Policy, DMCA