Vai

Vai - For The Love Of God guitar tab

"For The Love Of God" as recorded by Steve Vai

Tab: as heard by Bj"orn Winkler

Send corrections, additions etc to: bwinkler@stud.uni-frankfurt.de

Send flames to: satan@hell.com

--------------------------------------------------------------------

Play this part

3 times, then play:

e:-------------------------------------------------------------------------|

B:--------------------------15b(17)rb(15)p12---------------15--------------|

G:---------14--14b(16)~~~~--------------------12--14b(16)~~~~~~rb(14)~~~~--|

D:-----12------------------------------------------------------------------|

A:/14----------------------------------------------------------------------|

E:-------------------------------------------------------------------------|

Bend it up here, then pause, then

|| re-bend it here:

\\/ \\/

e:---------------------------------------------------------------------------|

B:-15b(17)rb(15)p12----------------------------------------------------------|

G:-------------------12--12b(14)---14rb(12)--12~~~~--/12--11--9------/9~~~~--|

D:---------------------------------------------------------------12----------|

A:---------------------------------------------------------------------------|

E:---------------------------------------------------------------------------|

Get this song at:  amazon.com

Share your thoughts

0 Comments found