Upo

Godless Tabs



More from Upo

Upo Tabs

TUNING: Drop-D
low to high=DADGBE

CHORDS:
55578x=G5
33356x=F5

NOTATION:
a=arpeggiate
/=slide up
>=accentuate note
.=stacatto
()=ghost note
X=muted string(s)
RF=Rhythm Figure
Rf=Rhythm fill

GUITARS:
Gtr. 1=acoustic(doubled by elec. gtr.)
Gtr. 2=electric
Gtr. 3=distortion
Gtr. 4=distortion
Gtr. 5=clean
Gtr. 6=distortion

FILLS:
Rf 1 End Rf 1
E]------------------------|
B]------------------------|
G]------------------------|
D]---------3/5-5-5-5-7----|
A]---------3/5-5-5-5-7--0-|
D]---------3/5-5-5-5-7--0-|

Rf 2 End Rf 2
[]-------------|--------|-------------|------------|
[]-------------|--------|-------------|------------|
[]-7----10-----|-5------|-7----10-----|12----------|
[]-X-----X-----|-X------|-X-----X-----|-X----------|
[]-5-----8-----|-3------|-5-----8-----|10----------|
[]-------------|--------|-------------|------------|

INTRO:
Moderately Slow=70bpm

D2 Dm9 Fsus2 Csus4 F5 G5 A5
RF 1 End RF 1
Gtr. 1
[]-0-----0-0----0--3------3---|----------------------------|
[]-3/6-6-6-6----6--6------6-6-|-6----6--6----------------0-|
[]-2/5-5---5----5--5---5--5-5-|-5----5-------------------0-|
[]-0---------------3---3--3-3-|-X----X----0----------------|
[]-a---------------3---3----3-|-3----3----0-3/5-5-5-5-7----|
[]----------------------------|-------------3/5-5-5-5-7----|

RF 2 End RF 2
Gtr. 2 > > .
[]-5/8-----8----8--8---8--8-8-|-8----8----8----------------|
[]-3/6-----6----6--6---6--6-6-|-6----6----6-----8----10--0-|
[]-2/5-----5----5--5---5--5-5-|-5----5----5-----7-----9--0-|
[]-0--------------------------|-------------3/5-5-----7--0-|
[]----------------------------|-------------3/5-5-----7----|
[]----------------------------|-------------3/5-5-----7----|


D2 Dm9 F5 Fsus2 Csus4 F5 G5 F5
[]-0---0--0----0-------3------|-----------------------------|
[]-3/6-6--6----6---6---6--6-6-|-6----6--6-------------------|
[]-2/5-5--5----5-.-5---5--5-5-|-5----5----------------------|
[]-0------0--0---0-3---3--3-0-|(3)---3----0-----------3-----|
[]---------------0-3---3--3-0-|-3----3----0-3/5-5-5-X-3-3-0-|
[]----------------------------|-------------3/5-5-5-X-3-3-0-|
> >
[]-5/8----8----8---8---8--8-8-|-8----8----8-----------------|
[]-3/6----6----6---6---6--6-6-|-6----6----6-----------6-6-0-|
[]-2/5----5----5---5---5--5-5-|-5----5----5-----------5-5-0-|
[]-0--------------------------|-------------3/5-5-5---3-3-0-|
[]----------------------------|-------------3/5-5-5-X-3-3---|
[]----------------------------|-------------3/5-5-5-X-3-3---|


VERSES:
Gtr. 1 w/RF 1, 3x simile
Gtr. 2 w/RF 2, 4x simile

PRE-CHORUS: *
D2 Dm9 F5 Csus4 F5 G5 A5
Gtr. 1
[]-0---0--0---0---------------|----.-----------------------|
[]-3/6-6--6---6---6----6--6---|----6--6--.-----------------|
[]-2/5-5--5---5---5----5--5---|-5-----5--5-----------------|
[]-0------0-----X-3----3--3-0-|-X-----X--3-0---------------|
[]----------------3----3--3-0-|-3-----3--3-0-3/5-5-5-X-7---|
[]----------------------------|--------------3/5-5-5-X-7---|
*Gtrs. 3 & 4 w/Rf 1, 2nd time


CHORUS:
D5 F5 C5 F5 G5 F5
RF 3 End RF 3
Gtrs. 1, 3 & 4 >
[]---------------------------|---------------------------|
[]-3-------3--------6----6---|---------------------------|
[]-2-------2--------5----5-0-|-5-------------------------|
[]-0-------0-0-3----3----3-0-|-5------5-0-3/5-5-5-5-3----|
[]-0---------0-3---------3-0-|-3------3-0-3/5-5-5-5-3--0-|
[]-0-----------3-----------0-|----------0-3/5-5-5-5-3--0-|


D5 F5 C5 F5 G5 A5
[]---------------------------|---------------------------|
[]-3-------3---6----6--------|---------------------------|
[]-2-------2---5----5----5---|-5------5------------------|
[]-0-------0-0-3----3----3-0-|-5------5-0-3/5-5-5-5-7--0-|
[]-0---------0-3----3----3-0-|-3------3-0-3/5-5-5-5-7--0-|
[]-0-----------3-------------|----------0-3/5-5-5-5-7--0-|


D5 F5 C5 F5 G5 F5
>
[]----------------------------|---------------------------|
[]-3-------3----------6---6---|---------------------------|
[]-2-------2----------5---5---|-5-------------------------|
[]-0-------0-0-3----3-3---3-0-|-5------5-0-3/5-5-5-5-3----|
[]-0---------0-3----3-----3-0-|-3------3-0-3/5-5-5-5-3--0-|
[]-0-----------3----3-------0-|----------0-3/5-5-5-5-3--0-|


*G5 F5
____ ______ _________
| | | |-| |-|-|-|-|.
/ / / / / / / / / /
D5 F5 >
[]---------------------------|-----------------------------|
[]-3-------3---6----6--------|-----------------------------|
[]-2-------2---5----5----5---|-.---------------------------|
[]-0-------0-0-3----3----3-0-|-5--5-------------------3--0-|
[]-0---------0-3----3----3-0-|-5--5-------------------3--0-|
[]-0-----------3-------------|-5--5-------------------3--0-|
*Gtr. 1 plays slash, Gtrs. 3 & 4 play TAB
To CODA I, 2nd time
To CODA II, 3rd time


Dm9 Fmaj7(no3) Cadd4 F5 G5 A5
Gtr. 6 w/Rf 2
RF 3 End RF 3
Gtrs. 1 & 5
[]------0-------------0--------|------0----------------------|
[]------------6-------------6--|------------6----------------|
[]----5-----5-------5-----5----|----5-----5------------------|
[]-0-------------3-------------|-----------------------------|
[]-----------------------------|-3---------------------------|
[]-----------------------------|-----------------------------|

Gtrs. 3 & 4
[]-----------------------------|-----------------------------|
[]-----------------------------|-----------------------------|
[]-7------------10-------------|-5---------------------------|
[]-7-------------X-------------|-X--------------3/5-5--5-7---|
[]-5-------------8-------------|-3------------0-3/5-5--5-7---|
[]-----------------------------|--------------0-3/5-5--5-7---|


Dm9 Fmaj7(no3) Csus4 F5 G5 F5
Gtrs. 1 & 5 w/RF 3
[]-----------------------------|------------------------------|
[]-----------------------------|------------------------------|
[]-7------------10-------------|12----------------------------|
[]-X-------------X-------------|-X--------------3/5-5-5-5-3---|
[]-5-------------8-------------|10------------0-3/5-5-5-5-3---|
[]-----------------------------|--------------0-3/5-5-5-5-3---|
Go back to VERSE: and play up 'til skip to CODA I


CODA I
G5 Dm9 Fmaj7(no3) Csus4 F5 G5 A5
Gtr. 6 w/RF 2
Gtrs. 1, 3 & 4 Gtrs. 1 & 5 w/RF 3, simile
[]------------||-------------------|--------------------------|
[]------------||.------------------|--------------------------|
[]------------||--7------10--------|-5------------------------|
[]-5--5-------||--7-------X--------|-X--------0-3/5-5-5-5-7---|
[]-5--5-------||.-5-------8--------|-3--------0-3/5-5-5-5-7---|
[]-5--5-------||-------------------|----------0-3/5-5-5-5-7---|


_________________________________
|1. |
Dm9 Fsus2 Cadd4 F5 G5 F5
Gtrs. 1 & 5
[]------0-----------3----3--|------0-----------------------||
[]----------6-------6----6--|------------6----------------.||
[]----5-----------5---------|----5-----5-------------------||
[]-0-----------3------------|------------------------------||
[]--------------------------|-3---------------------------.||
[]--------------------------|------------------------------||

Gtrs. 3 & 4
[]--------------------------|------------------------------||
[]--------------------------|-----------------------------.||
[]-7----------10------------|-5----------------------------||
[]-X-----------X------------|-X------------0-3/5-5-5-5-3---||
[]-5-----------8------------|-3------------0-3/5-5-5-5-3--.||
[]--------------------------|--------------0-3/5-5-5-5-3---||


_____________________________
|2. |
Csus4 A5 G5 F5
[]------0-------------------|
[]-----------6--------------|
[]----5---------------------|
[]--------------------------|
[]-3------------------------|
[]--------------------------|

[]--------------------------|
[]--------------------------|
[]12------------------------|
[]-X------------7-5---5-3---|
[]10------------7-5---5-3---|
[]--------------7-5---5-3---|


BRIDGE:
*Dm9 Fmaj7(no3) Cadd4 G13(no3)
RF 4 End RF 4
Gtr. 1
[]------0------------0-------|------0------------0-------|
[]-----------6-----5------6--|-----------6------------6--|
[]----5----------------------|----5------------5---------|
[]-0------------3------------|---------------------------|
[]---------------------------|-3-------------------------|
[]---------------------------|--------------5------------|
*Gtrs. 3 & 4 play a D5 at the 5 fr on the A string then drop out


Dm9 Fmaj7(no3) Cadd4 G13(no3)
Gtr. 1
||-------0------------0-------|------0------------0--------||
||.-----------6------------6--|-----------6-----------6---.||
||-----5------------5---------|----5------------5-------5--||
||--0------------3------------|----------------------------||
||.---------------------------|-3-------------------------.||
||----------------------------|--------------5-------------||


Dm9 Fmaj7(no3) Cadd4 G13(no3)
Gtr. 1 w/RF 4 Gtrs. 3 & 4 w/Rf 1

Go back to CHORUS: and play up 'til skip to CODA II


CODA II
G5 F5
Gtrs. 1, 3 & 4
[]--------------------------|
[]--------------------------|
[]--------------------------|
[]-5--5---5----5-5-5-5-3--0-|
[]-5--5---5----5-5-5-5-3--0-|
[]-5--5---5----5-5-5-5-3----|


OUTRO:
Dm9 Fmaj7(no3) Cadd4 D5 F5 G5 F5
Gtr. 6 w/RF 2
Gtrs. 1 & 5 w/RF 3, 2x
Gtrs. 3 & 4
[]------------------|--------------------------|
[]------------------|--------------------------|
[]-7------10--------|-5------------------------|
[]-7-------X--------|-X--------0-3/5-5-5-5-3---|
[]-5-------8--------|-3--------0-3/5-5-5-5-3---|
[]------------------|----------0-3/5-5-5-5-3---|
(Gtrs. 3 & 4)-Play again but replace the C5 with G5 at the 10 fr.
and replace the last F5 with A5 at the 7 fr.


*Dm9 Fmaj7(no3) Cadd4 G13(no3)
Gtr. 1
[]------0------------0---------|------0---------------0---------|
[]-----------6-----------6-----|----------6---------------6-----|
[]----5------------5---------5-|----5---------5-----5---------5-|
[]-0------------3----------3---|------------------0---------0---|
[]-----------------------------|-3----------3-------------------|
[]-----------------------------|----------------5---------------|
*Gtrs. 3 & 4 play a D5 at the 5 fr on the A string then drop out


Dm9 Fmaj7(no3) Cadd4 F5 G5 F5
Gtr. 1 ritard
[]------0--------------0---------|------0-----------------------|
[]----------6--------5-----6-----|----------6-------------------|
[]----5---------5--------------5-|----5-------5-----------------|
[]-0----------0---3----------3---|--------------0-3/5-----------|
[]-------------------------------|-3--------------3/5-5-5-5-3---|
[]-------------------------------|----------------3/5-5-5-5-3---|




That's the song. It has a lot too it. I did the best I could to
keep it short without taking away from the song. If you have any
questions or revisions for me then e-mail me. My address is:
LAngel234@aol.com. You can call me as Ducky. Enjoy the song.
Get this song at amazon.com      Ebay     Ringtones Ringtones  


Learn to play: Songwriting, Piano, Harmonica, Guitar
Also available at Muzikum: Upo - Godless lyrics

Related Upo Tabs

Godless tabs
Godless (acoustic) tabs
Godless2 tabs
Godless3 tabs
Godless4 tabs


Guitar Tabs









All tabs are property and copyright of their owners. All tabs provided for educational purposes only. Privacy Policy, DMCA