Unsigned

Unsigned - R33b0rn Love bass tab

Artist: Reeborn

Song : Love

Standart tuning (E A D G)

- slide down

h - hammer on

Verse1/2

G|------10-----10/15-14-12-12-----------12----7--7-7-|

D|---10-----10----------------12-10--10----10--------|

A|8--------------------------------------------------|

E|---------------------------------------------------|

G|7h10-------10----10-10/12-10----|

D|-----10-8-----8--------------12-|

A|--------------------------------|

E|--------------------------------|

G|------10-----10/15-14-12-12-----------12----7--7-7-|

D|---10-----10----------------12-10--10----10--------|

A|8--------------------------------------------------|

E|---------------------------------------------------|

G|7h10-------10--------|

D|-----10-8-----8------|

A|----------------10-8-|

E|---------------------|

Chorus

G|-----------------------------------------------------------|

D|-------------------5-----5-8/12-10-8-----------------------|

A|-----------------5---5/8-------------8---------------------|

E|8--8-8--8-6-5-3------------------------6--6-6--61--1-1--1-|

G|-----------------------------------------------|

D|-----------------------------------------------|

A|---------------------------5-3-1--1--1--1--1---|

E|8--8-8--8-6-5-3--3-3--3--3-------------------1-|

Verse 3/4

G|-------------------------------------7------9----10--------------/12-10-|

D|-----------------------12-10-------7---7/10---12----8--8-8--8h10--------|

A|8---8--10-12-10--10-10-------125---------------------------------------|

E|------------------------------------------------------------------------|

G|-----------------------------------7------9----10-----------------------------|

D|---------------------------------7---7/10---12----8--8--8-8-8/10--10-10-------|

A|8---8--10-12----10--10-10--105-----------------------------------------12-10-|

E|-------------10---------------------------------------------------------------|

G|----------------|

D|----------------|

A|8--8-8(let ring)|

E|----------------|

Taken from The BassMasta -- http://www.tabs-database.com

Get this song at:  amazon.com sheetmusicplus.com

Share your thoughts

0 Comments found