Unsigned

Unsigned - R33b0rn Aggression bass tab

Artist: Reeborn

Song : Aggression?

Standart tuning (E A D G)

- slide down

/ - slide up

h - hammer on

p - pull off

Intro

G|---------------------------------|

D|---------------------------------|

A|---------------------------2h3p2-|

E|-5-55-5551----5-55-5551--------|

Verse

G|---------------------------------------------------------|

D|---------------------------------------------------------|

A|---------5-7--------2h3p2---------5-78-88h10/12-10-------|

E|-5-555-55----1-111-1------5-555-55-----------------12-10-|

G|-------------------------------|

D|-------------------------------|

A|---------5-7-------------------|

E|-5-555-55----1-111/10-10-10-10-|

Chorus

G|------------------------------|

D|------------R-E-S-T-----------|

A|------------------------------|

E|------------------------------|

G|------------------------------|

D|------------------------------|

A|-0-0-0-3-3-3--------------0h2-|

E|-------------3-3-3-0-0-0h3----|

Solo

G|------------------554-----------------------|

D|---7----5h75---7--------7----5h75---7-------|

A|-----5h7----78------------5h7----78---------|

E|-5--------------------5---------------0-1-3-|

G|--------------------------------------------7754-|

D|---7----5h75---7-7/9-10-9-----7----5h75---7------|

A|-----5h7----78------------------5h7----78--------|

E|-5--------------------------5--------------------|

Taken from The BassMasta -- http://www.tabs-database.com

Get this song at:  amazon.com sheetmusicplus.com

Share your thoughts

0 Comments found