Unsigned

Unsigned - G Lick Part 2 bass tab

S=slide h=hammer

G-------------------------------10--------12--10h11h10-----------------------------------

D---------------------8-10s12----10s12------------------12-10-8-------------------------

A---------------8-10--------------------------------------------------10-8-----------------

E----3-6-8-10---------------------------------------------------------------10-8-3-4-----

G------------------------------------------------------------------------

D--------------------1---1-5-5--5-3--------------------------------------------

A--------1-3s5-1-5---5--------------5-4-3-1------------------------------------

E---1-3------------------------------------------1-3-------------------------

Get this song at:  amazon.com sheetmusicplus.com

Share your thoughts

0 Comments found