Unsigned

Unsigned - G Lick Part 1 bass tab

G----7-7-------------------------------------------------------------------

D---------4-4-5-5-6-6-7-7---------------------------------------------------------

A------------------------------2-2-3-3-4-4-5-5-----------------------------------

E----------------------------------------------------2-2-3-3-4-4-5-5-------------

G-------------------------------------------------4-4-5-5-6-6-7-7----------------

D-----------------------------4-4-5-5-6-6-7-7------------------------------------

A--------2-2-3-3-4-4-5-5---------------------------------------------------------

E---3-3--------------------------------------------------------------------

G---7-5---------------------------

D--------7-5-3-------------------

A---------------5-3-1------------

E-----------------------1-3-------

Get this song at:  amazon.com sheetmusicplus.com

Share your thoughts

0 Comments found