Unsigned

Unsigned - 4track-duct Tape guitar tab

band:4track

song:duct tape

album:unknown

standard tuning

intro:

-------------------------

-------------------------

-------------------------

9-7---------------------

9-7-x6------------------

7-5---------------------

chorus:

-----------------------------------------

-----------------------------------------

---------10-7-7--------------------------

99999999-x--7-7-99999999-5-7-7-----------

99999999-8--5-5-99999999-5-7-7-x2--------

77777777--------77777777-3-5-5-----------

verse:

harmonic * * * *

-------------------------------------

-------------------------------------

-------------------------------------

9------------------9--------------x6-

9------------------9-----------------

7----------7-7-----7-------7-7-------

solo:

-------------0-0-0-00-0------------0-0-0-00-0-----

-4-4-4-44-4-------------3-3-3-33-3----------------

--------------------------------------------------

--------------------------------------------------

--------------------------------------------------

--------------------------------------------------

order:

intro

chorus

verse

chorus x2

verse

chorus

solo

chorus

Get this song at:  amazon.com sheetmusicplus.com

Share your thoughts

0 Comments found