Unsigned

Unsigned - 1 16 bass tab

Please rate this. Thanks.

Intro

-----------------------------------------

-----------------------------------------

--0-2-3-4/7-7-7-7-5-5-5-5----------------

--------------------------7-6-5-0-4-5-6--

Verse

-----------------------------------------

-----------------------------------------

--0-2-3-4/7-7-7-7-5-5-5-5----------------

--------------------------7-6-5-0-4-5-6--

Chorus

-------------------------------------------------------------------

-------------------------------------------------------------------

--0-3-4-5-0-3-4-5-0-3-4-5-0-3-4-5-0-7-6-5-0-7-6-5-0-5-6-7-0-5-6-7--

-------------------------------------------------------------------

Bridge Part 1

---------------------------------------------------

--0-4-5-0-5-6-0-6-7-0-7-8-0-8-9-0-7-8-0-6-7-0-5-6--

---------------------------------------------------

---------------------------------------------------

Bridge Part 2

--------------------------------------------------------------------

--0-4-5-6-0-4-5-6-----------------0-6-7-8-0-6-7-8---------0-8-9-10--

------------------0-4-5-6-0-4-5-6-----------------0-6-7-8-----------

--------------------------------------------------------------------

Bridge Part 3

-----------

--0-4-5-6--

-----------

-----------

Structure:

Intro x4

Verse x4

Chorus x2

Verse x4

Chorus x2 second time through hold last note for aboot 2 seconds

Bridge Part 1 x4

Bridge Part 2 x2

Bridge Part 3 x8

Chorus x2

Verse x4

Chorus x4

Taken from The BassMasta -- http://www.tabs-database.com

Get this song at:  amazon.com sheetmusicplus.com

Share your thoughts

0 Comments found