Unsigned

Unsigned - 1 14 bass tab

Please Rate this. Thanks

Intro

----------------------------------

----------------------------------

--0----0-0----0----0-0-0-0-2h3h4--

----------------------------------

Pre-Verse

---------------------

---------------------

--0-0-0-0-0-0-2h3p2--

---------------------

Verse

---------------------------------

---------------------------------

--2-2-2-2-2-2-2-0-3-4-3-5-4-3-0--

---------------------------------

Chorus

-----------------------------------

-----------------------------------

--2-2-2-0-3-3-3-0-1-1-1-0-2-2-2-0--

-----------------------------------

Bridge/Solo

-------------------------------------------------------------

-------------------------------------------------------------

--5-5-5-0-3-3-0-------4-5-6-7-0-5-5-5-0-3-3-3-0-7-6-5-4-4-4--

----------------5~--5----------------------------------------

Bridge/Solo part 2

-------------------------------

-------------------------------

--9-9-9-x-7-7-7-x-5-7-5-4-4-4--

-------------------------------

Riff

-----------------------------------

-----------------------------------

--0-0-0-0-0-0-0-0-3-3-3-3-3-3-3-3--

-----------------------------------

Structure:

Intro x2

Pre-Verse x4

Verse x4

Chorus x4 fourth time through, play last 0 as 2

Pre-Verse x4

Verse x4

Chorus x4

Bridge/Solo part 1 x2

Bridge/Solo part 2 x4

Riff x1

Chorus x4 fourth time through, play last 0 as 2

Pre-Verse x4

Verse x4

Chorus x4

Taken from The BassMasta -- http://www.tabs-database.com

Get this song at:  amazon.com sheetmusicplus.com

Share your thoughts

0 Comments found