Unsigned

Unsigned - 1 13 bass tab

Please Rate this. Thanks

Verse

--------------------------------------------

--------14-15-14-----------14-15-17-15-14~-- these are only one number

-----15----------15~----15------------------ (example:15 not 1-5)

--0~-----------------0~---------------------

Chorus

-----17-15----------14-15~---17-15----------15-14~--

-----------16-14-15----------------17-16-14---------

----------------------------------------------------

--0~-----------------------0~-----------------------

Bridge

--------15-----------------15-17-14--------------15------------

-----17----17-15-14~----17----------15-16~----17----17-15-14~--

---------------------------------------------------------------

--0~-----------------0~--------------------0~------------------

Continuation of Bridge

--------15----15-17-18-17-15-----

-----17----17----------------17--

---------------------------------

--0~-----------------------------

Structure:

Verse x4

Chorus x2

Verse x4

Chorus x2

Bridge x2

Chorus x2

Verse x4

Chorus x2

Taken from The BassMasta -- http://www.tabs-database.com

Get this song at:  amazon.com sheetmusicplus.com

Share your thoughts

0 Comments found