Unsigned

Unsigned - 1 12 bass tab

Please Rate this. Thanks

Verse

----------------------------------------------------------------

--------2-3-2-----------2-3~2~-------2-3-2-----------2-3-5-3-2--

--0-3-5-------5-3-0-3-5--------0-3-5-------5-3-0-3-5------------

----------------------------------------------------------------

Chorus

------------3------------------------------

--------4-5---5-4-----------5-6-7-6-5------

--0-5-7-----------7-5-0-5-7-----------7-5--

-------------------------------------------

Bridge/Solo

----------------------------------------------|----

----------2-------3-------2-----0-1-2-3-2-1-0-|---- play the 3 only

--(0)-3-4---4-3-5---5-3-4---4-3---------------|-3-- after the fourth

----------------------------------------------|---- time/last time

play the 0 in the () only on the first time

Structure:

Verse x4

Chorus x2

Verse x2

Chorus x4

Bridge/Solo x4

Chorus x2

Verse x2

Chorus x4

Taken from The BassMasta -- http://www.tabs-database.com

Get this song at:  amazon.com sheetmusicplus.com

Share your thoughts

0 Comments found