U2

U2 - 4th Of July guitar tab

hey this a a good song bye u 2 tabbe d bye EC

standard tunning

(delay with many repeats, put as much reverb as possible)

1----------------------------------------------------------------|

2---13/15---(15)--(15)--(15)--(15)---12---(12)--(12)--(12)--(12)-|

3----------------------------------------------------------------|

4----------------------------------------------------------------|

5----------------------------------------------------------------|

6----------------------------------------------------------------|

1-------------------------------------------------------------|

2---12--(12)--(12)--(12)--(12)----x-x-x-x-x-x-(x)-(x)-(x)-(x)-|

3---12--(12)--(12)--(12)--(12)----x-x-x-x-x-x-(x)-(x)-(x)-(x)-|

4-------------------------------------------------------------|

5-------------------------------------------------------------|

6-------------------------------------------------------------|

1--------------------------------------------------------------------------|

2---15---(15)--(15)--(15)--(15)-------------12----------(12)---------(12)--|

3----------------------------------12-------------(12)---------(12)--------|

4--------------------------------------------------------------------------|

5--------------------------------------------------------------------------|

6--------------------------------------------------------------------------|

1-------------------------------------------------------------|

2-------------------------12----12---10-----(10)--(10)--(10)--|

3---12--------------------------------------------------------|

4-------------------------------------------------------------|

5-------------------------------------------------------------|

6-------------------------------------------------------------|

1-------------------------------------------------------------------|

2-----------10--------------------10------------(10)-----------(10)-|

3---10------------------10---------------(10)----------(10)---------|

4-------------------------------------------------------------------|

5-------------------------------------------------------------------|

6-------------------------------------------------------------------|

1---3/7--(7)--(7)--(7)--(7)----1915--(15)--(15)--(15)--(15)---|

2---3/7--(7)--(7)--(7)--(7)----1915--(15)--(15)--(15)--(15)---|

3-------------------------------------------------------------|

4-------------------------------------------------------------|

5-------------------------------------------------------------|

6-------------------------------------------------------------|

(do long slides, letting the slide echos repeat)

(rake strings behind the nut)

1---0--0--0--0--0--0--(0)--(0)---------------------------------|

2----------------------------------------0--0--0--0--(0)--(0)--|

3--------------------------------------------------------------|

4--------------------------------------------------------------|

5--------------------------------------------------------------|

6--------------------------------------------------------------|

1---0--0--0--0--0--0--(0)--(0)---12--12--12--12--12--12--(12)--(12)-|

2-------------------------------------------------------------------|

3-------------------------------------------------------------------|

4-------------------------------------------------------------------|

5-------------------------------------------------------------------|

6-------------------------------------------------------------------|

1-----------------------------------------|

2---12--12--12--12--12--13/15--(15)--(15)-|

3-----------------------------------------|

4-----------------------------------------|

5-----------------------------------------|

6-----------------------------------------|Added by tabs-database.com and our distinguished partners

Get this song at:  amazon.com sheetmusicplus.com

Share your thoughts

0 Comments found