True Faith

True Faith - Wag Na Lang Kaya guitar tab

***wag na lang kaya***

true faith

tabbed by: -uno-

standard tuning

into/verse/chorus:

AM7 Bm C#m Bm-Bbm

|----------------*--------------*--------------*---------|

|--------2----2--*------3----3--*------5----5--*------32-| Verse: repeat 2x

|--------1----1--*------4----4--*------6----6--*------43-| chorus: repeat 2x

|--------2----2--*------4----4--*------6----6--*------43-|

|-----0----0-----*--02----2-----*--02----2-----*--02-----|

|-0h2------------*--------------*--------------*---------|

refrain:

DM7 C#m

|----2----2-*-------------|

|----2----2-*------5----5-|

|----2----2-*------6----6-|

|-----------*------6----6-| REPEAT 2x

|-0----0----*--02----2----|

|-----------*-------------|

..ngunit di mo na ata..

DM7 Esus-E

|----2----2-*-------------|

|----2----2-*-------------|

|----2----2-*-21----------|

|-----------*--2----------|

|-0----0----*-22----------|

|-----------*-------------|

..ngda2lwang na

isip

listen to the song para alm nio ung timing chka para alm nio den

kng kelan ita2p.ehehe.

Get this song at:  amazon.com sheetmusicplus.com

Share your thoughts

0 Comments found