Tracy Byrd

Tracy Byrd - Watermelon Crawl solo guitar tab

Watermelon Crawl

Tracy Byrd

Lead Guitar Solo - approx. 1:53

| |= indicates 4/4 measure /= slide up \= slide down

b= bend r= release

~~ = hold out (not necessarily vibrato in this case...)

C

| | |

E---------------------------------8-----7--6~--------------

B------------------------------8--10----9--8~--------------

G--------------------5-----7/9-----------------------------

D------------5-7br-5---------------------------------------

A-----3--5/7-----------------------------------------------

E----------------------------------------------------------

G

| |

E--13--------13-13-----------------------------------------

B--13b[15]---13-11------------------------------------8----

G-----------------12--12------12---------10~~--------------

D---------------------14b[15]-12-14-12---10b[11]r10-8------

A----------------------------------------------------------

E----------------------------------------------------------

C G

| | |

E-----8-----------------------------3-------3--------------

B------11\10-8\6--------4-3~-------------------------------

G--7-9-----------9\7-5--4-3~---2b[4]---2b[4]---2b[4]r-0-2-0

D---------------------5------------------------------------

A----------------------------------------------------------

E----------------------------------------------------------

(2/4 meas) (4/4)

D G

| | |

E----------------------------------------------------------

B----------------------------------------------------------

G----------------0-----------------------------------------

D--2-0------------------3--5~~~~~~~------------------------

A------------------3-5-------------------------------------

E------5b[6]r--3-------------------------------------------

(FYI)

examples: 13b[15]= bend at 13th fret 1 whole step

(fret 15)

14b[15]= bend at 14th fret 1 half step

(fret 15)

5b[6]r= bend 1/2 step and release w/ out picking

string again.

Tele Cowboy

Get this song at:  amazon.com sheetmusicplus.com

Share your thoughts

0 Comments found