Theme Songs

Theme Songs - F1 Theme bass tab

This is a really cool tab and it's so easy to play

G|-------------------------

D|-------------------------

A|--0--0-2-3-2----0-2--

E|---------------0-3----0-

G|-------------------------

D|-------------------------

A|--0--0-2-3-2----0-2--

E|---------------0-3----0-

G|-------------------------

D|-------------------------

A|--0--0-2-3-2----0-2--

E|---------------0-3----0-

Taken from The BassMasta -- http://www.tabs-database.com

Get this song at:  amazon.com sheetmusicplus.com

Share your thoughts

0 Comments found