Theme Music

Theme Music - Yankie Doodle guitar tab

Yankie doOdle. yeaRs oLd and gReat foR a LeaRner. enJoi..

e|--------0---0---|

B|--1-1-3---1---3-|

G|----------------|

D|----------------|

A|----------------|

E|----------------|

e|--------0-----|

B|--1-1-3---1-0-|

G|--------------|

D|--------------|

A|--------------|

E|--------------|

e|--------0-1-0------------------|

B|--1-1-3-------3-1-0-----0-1-1--|

G|----------------------2--------|

D|-------------------------------|

A|-------------------------------|

E|-------------------------------|

--YANKiE DOODLE--

TaBBeD By oNe8tWo. enJoi..

Get this song at:  amazon.com

Share your thoughts

0 Comments found